Cold - Its All Good Chords & Tabs

 

Its All Good Chords & Tabs

Cold Chords & Tabs

Version: 1 Type: Bass Tab 0 ratings
1 star 2 stars 3 stars 4 stars 5 stars
comments

Its All Good Bass Tab

Artist: Cold	
Song: Its All Good 
Tabbed by: Psychoryno101@hotmail.com	
				
Drop C Tuning  ( CGCF  )

Intro/Verse         	  
C|---------------------------------------------------------------------------------------------------|
F|-2-2-2-2-2-2-2-2------------------5--2-2-2-2-2-2-2--4-4-4-4-----------------------5----------------|
G|------------------5-5-5-5-5-5-5-5---------------------------5-5-5-5-3-3-3-3-3-3-3--3-3-3-3---5-3-2-|
C|---------------------------------------------------------------------------------------------------|
[ Tab from: http://www.guitartabs.cc/tabs/c/cold/its_all_good_btab.html ]
Chorus	
F|---------------------------------------------------------|
C|---------------------------------------------------------|
G|---------------------------------------------------------|
C|-8-8-8-8-8-8-8-8--5-5-5-5-5-5--4-4-4-4-4--0-0-0--4-4-4---|

Bridge
F|------------------------------------------------------------------------|
C|------------------------------------------------------------------------|
G|------------------------------------------------------------------------|
C|-7-7-7-7-7-7-7-7--2-2-2-2-2-2-2-2--3-3-3-3-3-3-3-3-3-3--0-0-0-0-0-0-0-0-|

Comments