Cold - Insane Chords & Tabs

 

Insane Chords & Tabs

Cold Chords & Tabs

Version: 1 Type: Bass Tab 0 ratings
1 star 2 stars 3 stars 4 stars 5 stars
comments

Insane Bass Tab

   
===================================================================
	Band:   Cold
	Song:   Insane
	Album:  Cold
	Author: Obsidian (creatorofsong@hotmail.com)
	Tuning: C, F, Bb, Eb
	Date:   September 28, 2001
	Notes:  Another easy song, but with a little too much 
	        distortion ... took me over an hour just to discern 
		the notes. :\

===================================================================

Verse:
Eb|------------------|------------------|------------------|------------------||
Bb|------------------|------------------|------------------|------------------.|
F |------------------|------------------|------------------|------------------.|
C |-3-3-3-3--3-3-3-3-|-2-2-2-2--2-2-2-2-|-0-0-0-0--0-0-0-0-|-0-0-0-0--0-0-0-0-||
(repeat till chorus)
[ Tab from: http://www.guitartabs.cc/tabs/c/cold/insane_btab.html ]
Chorus:
Eb|------------------|------------------|------------------|------------------|
Bb|------------------|------------------|------------------|------------------|
F |-3-3-3-3--3-3-3-3-|-2-2-2-2--2-2-2-2-|-0-0-0-0--0-0-0-0-|-2-2-2-2--3--5----|
C |------------------|------------------|------------------|------------------|

Cont...
Eb|------------------|------------------|------------------|------------------||
Bb|------------------|------------------|------------------|------------------||
F |-3-3-3-3--3-3-3-3-|-2-2-2-2--2-2-2-2-|-0-0-0-0--0-0-0-0-|-2-2-2-2--3-3-5-5-||
C |------------------|------------------|------------------|------------------||
(repeat twice)

Bridge:
Eb|------------------|------------------|------------------|------------------||
Bb|------------------|------------------|------------------|------------------.|
F |------------------|------------------|-3---3---3---3----|-2---2---2---2----.|
C |--0---0---0---0---|-2---2---2---2----|------------------|------------------||

Repeat verse
Repeat chorus

Finale:
Eb|-------------|
Bb|-------------|
F |-------------|
C |-0-0-0-0-0-0-|
Comments