Cold - Happens All The Time Chords & Tabs

 

Happens All The Time Chords & Tabs

Cold Chords & Tabs

Version: 3 Type: Tab 0 ratings
1 star 2 stars 3 stars 4 stars 5 stars
comments

Happens All The Time Tab

   
-------------------------------------------------------------------------------
		   "Happens All the Time" - Cold
-------------------------------------------------------------------------------
Tabbed by:Iceman3
Email:icemanheat@msn.com

Tuning:C F Bb Eb G C

 Some of the other tabs work but Cold always plays there songs 2 steps down in
C F Bb Eb G C. As far as I know they never use anything but that.  They use two
guitars which double eachother mainly throughout the whole song until the bridge.
If you have any questions or want me to tab out any of their other songs (new album
included), email me at icemanheat@msn.com.

intro

gtr 1 and 2 w/dist.

C |---------------------------------------------------------------------------|
G |---------------------------------------------------------------------------|
Eb|---------------------------------------------------------------------------|
Bb|-10-10-10-10-10-10-10-10-10-10-10-10-10-10-10-10-9-9-9-9-9-9-9-9-9-9-9-9-9-|
F |---------------------------------------------------------------------------|
C |---------------------------------------------------------------------------|

intro cont.

C |--------------------------------------------------------------------------|
G |--------------------------------------------------------------------------|
Eb|--------------------------------------------------------------------------|
Bb|-9-9-9-10-9---------------------------------------------------------------|
F |------------10-10-10-10-10-10-10-10-10-10-10-10-10-10-10-10-9-9-9-9-9-9-9-|
C |--------------------------------------------------------------------------|

intro cont.

C |--------------------------------------------------------------------------|
G |--------------------------------------------------------------------------|
Eb|--------------------------------------------------------------------------|
Bb|---------------12-10-9----------------------------------------------------|
F |-9-9-9-9-9-9-9------------------------------------------------------------|
C |--------------------------------------------------------------------------|

chorus

gtr 1 and 2 w/dist.  rhytm pattern not shown
[ Tab from: http://www.guitartabs.cc/tabs/c/cold/happens_all_the_time_tab_ver_3.html ]
C |-----------------------------|--------------------------------------------|
G |-----------------------------|--------------------------------------------|
Eb|----------7-----5------------|---------7-----5----------------------------|
Bb|----5-----7-----5------------|---5-----7-----5----------------------------|
F |----5-----5-----3---2h3p2p0--|---5-----5-----3----------------------------|
C |----3------------------------|---3----------------------------------------|

Bridge

gtr 1 w/ dist.


C |--------------------------------|-----------------------------------------|
G |--------------------------------|-----------------------------------------|
Eb|-----------------------14/16\14-|----12/14\12------12/16\14------14/16\14-|
Bb|------------------------x/-x\-x-|-----x/-x\-x-------x/-x\-x-------x/-x\-x-|
F |--2----4----5----7-----12/14\12-|-2--12/14\12---4--12/14\12---5--12/14\12-|
C |--0----2----3----5--------------|-0-------------2-------------3-----------|

gtr 1 cont.
C |--------------------------------------------------------------------------|
G |--------------------------------------------------------------------------|
Eb|--------------------------------------------------------------------------|
Bb|--------------------------------------------------------------------------|
F |--7---7---x---9-----------------------------------------------------------|
C |--5---5---x---7-----------------------------------------------------------|


gtr 2 clean        let ring

C |-------0-----------0-----------0------------0-----0-----------------------|
G |----------0-----------0-----------0------------7-----7/8------------------|
Eb|--------------------------------------------------------------------------|
Bb|--------------------------------------------------------------------------|
F |----2-----------4-----------5-----------7---------------------------------|
C |-0-----------2-----------3-----------5------------------------------------|

Outro chorus   slightly different than regular chorus

gtr 1 and gtr 2 w/dist.

C |----------------|----------------|-----------------------------------------|
G |----------------|----------------|-----------------------------------------|
Eb|---5-------7----|---5-------7----|-----------------------------------------|
Bb|---5---5---7----|---5---5---7----|---7---9---2---the end-------------------|
F |---3---5---5----|---3---5---5----|---7---9---2-----------------------------|
C |-------3--------|-------3--------|---5---7---0-----------------------------|


| /  slide up
| \  slide down
| h  hammer-on
| p  pull-off
| ~  vibrato
| +  harmonic
| x  Mute note
===============================================================================
Comments