Cold - Happens All The Time Chords & Tabs

 

Happens All The Time Chords & Tabs

Cold Chords & Tabs

Version: 2 Type: Tab 0 ratings
1 star 2 stars 3 stars 4 stars 5 stars
comments

Happens All The Time Tab

-------------------------------------------------------------------------------
	            Happens All The Time - Cold
-------------------------------------------------------------------------------
Tabbed by:Daniel Guajardo
Email:bigg00_5@yahoo.com

Tuning:Standard

This is my first tab. i heard the song on the radio and just figured it out while 
it. If its not great email me a better one

Repeat these sections 3 times (intro)
e|---------------------------------------------------------------------------|
B|---------------------------------------------------------------------------|
G|--1-1-1-1-1-1-1-1-1-1-1-1-1-1-1-0-0-0-0-0-0-0-0-0-0-0-0-0-0-0------------- |
D|---------------------------------------------------------------------------|
A|---------------------------------------------------------------------------|
E|---------------------------------------------------------------------------|
[ Tab from: http://www.guitartabs.cc/tabs/c/cold/happens_all_the_time_tab_ver_2.html ]
e|---------------------------------------------------------------------------|
B|---------------------------------------------------------------------------|
G|---------------------------------------------------------------------------|
D|-1-1-1-1-1-1-1-1-1-1-1-1-1-1-1-0-0-0-0-0-0-0-0-0-0-0-0-0-0-0---------------|
A|---------------------------------------------------------------------------|
E|---------------------------------------------------------------------------|

e|---------------------------------------------------------------------------|
B|---------------------------------------------------------------------------|
G|-0-1-0-1-0-----------------------------------------------------------------|
D|---------------------------------------------------------------------------|
A|---------------------------------------------------------------------------|
E|---------------------------------------------------------------------------|

Chorus (Listen to the strumming)
e|-------------------------------------------------------------------------------|
B|-------------------------------------------------------------------------------|
G|-----5-----------3-------------------------------------------------------------|
D|-----5-----------3--------3--------3-------------------------------------------|
A|-----3-----------1--------3--------3-------------------------------------------|
E|--------------------------1--------1-------------------------------------------|

Repeat the intro()
then The Chorus()
just listen to the song

any mistake take it easy on me its my first
corrections or add ons just e-mail


===============================================================================
Comments