Cold - Happens All The Time Chords & Tabs

 

Happens All The Time Chords & Tabs

Cold Chords & Tabs

Version: 1 Type: Tab 0 ratings
1 star 2 stars 3 stars 4 stars 5 stars
comments

Happens All The Time Tab

   
The rhythm isn't exact, but I'm almost positive these are the notes, you can figure
out the rhythm.  I think this is pretty darn close! Enjoy!
Tuning: C G C F A D
   verse                                                                                       X2|
D-------------------------------------------------------|
A-------------------------------------------------------|
F3333333333222222222232--------------432---------------|
C-----------------------33333332222222------------------|
G-------------------------------------------------------|
C-------------------------------------------------------|
[ Tab from: http://www.guitartabs.cc/tabs/c/cold/happens_all_the_time_tab.html ]
D-------------------------------------------------------|
A-------------------------------------------------------|
F33333333222222232-------------------------------------|
C------------------33333333222222-----------------------|
G-------------------------------------------------------|
C-------------------------------------------------------|
                                                                                         
                       CHORUS
                                                                                               X2
D-------------------------------------------------------|
A-------------------------------------------------------|
F-----------------5-5-5-5----3-3-3-3-3-3-3-3--- -------|
C--3--3-3--3-------5-5-5-5----3-3-3-3-3-3-3-3-----------|
G--3--3-3- 3-------3-3-3-3----1-1-1-1-1-1-1-1-----------|
C--3--3-3--3--------------------------------------------|

Back to verse
Chorus

Break                                                                                        X2
D--------------------------------------------------------|
A--------------------------------------------------------|
F-------------------------------------------------------|
C----0---------------2------------3---------------5------|
G----0---------------2------------3---------------5------|
C----0---------------2------------3---------------5------|
         Let ring....      ...........    ..............    ...................

2ND CHORUS                                                                          X4
D-----------------------------------------------------------------------------|
A-----------------------------------------------------------------------------|
F---3---3---3--3-----------------------------5--5--5--5----5-5-5-5-----------|
C----3---3--3--3-------3---3--3---3----------5--5--5--5----5-5-5-5-----------|
G----1---1---1--1-------3---3--3---3----------3--3--3--3----3-3-3-3-----------|
C-----------------------3---3--3---3------------------------------------------|


D--------------------------------------------------|
A--------------------------------------------------|
F--3----5-----------------------------------------|
C---3----5-------0---------------------------------|
G---1----3-------0---------------------------------|
C----------------0---------------------------------|
                           Let ring........ feedback
Comments