Cold - Goodbye Cruel World Chords & Tabs

 

Goodbye Cruel World Chords & Tabs

Cold Chords & Tabs

Version: 1 Type: Tab 0 ratings
1 star 2 stars 3 stars 4 stars 5 stars
comments

Goodbye Cruel World Tab

Transcribed by - Michael Doyle 
Contact me at goawey@hotmail.com
This tab belongs to http://www.iol.ie/~cold

tuning - C F Bb Eb G C (two whole steps/4 frets down)

---------------------------------------------------------------


Goodbye Cruel World

Intro/verse
[ Tab from: http://www.guitartabs.cc/tabs/c/cold/goodbye_cruel_world_tab.html ]
|-----------------|-----------------|-----------------|-----------------|
|-----------------|-----------------|-----------------|-----------------|
|-----------------|-----------------|-----------------|-----------------|
|-----------------|-----------------|-----------------|-----------------|
|-2-2-2-2-2-2-2-2-|-5-5-5-5-5-5-5-5-|-3-3-3-3-3-3-3-3-|-2-2-2-2-2-2-2-2-|
|-0-0-0-0-0-0-0-0-|-3-3-3-3-3-3-3-3-|-1-1-1-1-1-1-1-1-|-0-0-0-0-0-0-0-0-|


chorus

|---------------------------------|
|---------------------------------|
|---------------------------------|
|-5-5-5-5-4-4-4-4-----------------|
|-3-3-3-3-2-2-2-2-5-5-5-5-4-4-4-4-|
|-----------------3-3-3-3-2-2-2-2-|


bridge
timing is wrong (listen to the song)

|-----------------------------------------|
|-----------------------------------------|
|-----------------------------------------|
|---------------------5-5-5-4-4-4---------|
|-2-2-2-2-2-2-2-2-2-2-3-3-3-2-2-2-5-5-4-4-|
|-0-0-0-0-0-0-0-0-0-0-------------3-3-2-2-|

Comments