Cold - Gone Away Chords & Tabs

 

Gone Away Chords & Tabs

Cold Chords & Tabs

Version: 5 Type: Tab 0 ratings
1 star 2 stars 3 stars 4 stars 5 stars
comments

Gone Away Tab

 tune down 2 whole steps

   intro
 |---------------------------|-------------------------0-----||
 |---------3-----------3-----|---------3-----------3-----3---||
 |-----0-----------------0---|-----0-----------0-----0-----0-||
 |---2---2---------2-------2-|---2---2-----------2-----------||
 |-0---------0-2-3---0-------|-0---------0-2-3---------------||
 |---------------------------|-------------------------------||


  chorus
 |-------------------------------|------------------------------|
 |-------------------------------|------------------------------|
 |-------------------------------|------------------------------|
 |-------------------------------|------------------------------|
 |-7--7-7-7---15--15-15-15-15-15-|--10--10-10-10---9--9-9-9-9-9-|
 |-5--5-5-5---13--13-13-13-13-13-|--8---8--8--8----7--7-7-7-7-7-|
[ Tab from: http://www.guitartabs.cc/tabs/c/cold/gone_away_tab_ver_5.html ]
  bridge
 |------17------17------17------17-|------17------17------17------17-|
 |----x---------------x------------|----x---------------x------------|
 |-14------14------14------14------|-14------14------14------14------|
 |---------------------------------|---------------------------------|
 |---------------------------------|---------------------------------|
 |---------------------------------|---------------------------------|

 |------17------15------12-----10-|
 |----x---------------x-----------|
 |-14------14------12------9------|
 |--------------------------------|
 |--------------------------------|
 |--------------------------------|

 
 i haven't got the solo yet...


 chorus
 |-------------------------------|------------------------------||
 |-------------------------------|------------------------------||
 |-------------------------------|------------------------------||
 |-------------------------------|------------------------------||
 |-7--7-7-7---15--15-15-15-15-15-|--10--10-10-10---9--9-9-9-9-9-||
 |-5--5-5-5---13--13-13-13-13-13-|--8---8--8--8----7--7-7-7-7-7-||


     COLD RULES!!!

 tabed by *INFERNUS666*
Comments