Cold - Gone Away Chords & Tabs

 

Gone Away Chords & Tabs

Cold Chords & Tabs

Version: 4 Type: Tab 0 ratings
1 star 2 stars 3 stars 4 stars 5 stars
comments

Gone Away Tab

   
Hey everybody,
I haven't tabbed in a song for months now and I'm starting to get back into it,
so today for all of you I am going to tab one of my favorite songs, "Gone Away"
by Cold.

Artist: Cold
Title: Gone Away
Album: WWF Tough Enough 2 Soundtrack
Tabbed By: dark_garden@hotmail.com

Tuning - E A D G B e (They actually have that tuning and a capo on the first
fret, so you can rather put the capo on the first fret with the standard tuning
or just tune it up to G.)

\ = Slide
b = Bend

Intro/Verse

The last part for it only occurs sometimes, so listen in the song for it.

e|---------------------------------|----------| 
B|---------------------------------|-----0----| 
G|----------2-------------2--------|----------| 
D|------0------------0------0------|--0-------|
A|----2----------------2--------2--|-------2--|
E|--0-----0----0-2-3---------------|----------|

Chorus
[ Tab from: http://www.guitartabs.cc/tabs/c/cold/gone_away_tab_ver_4.html ]
The chords are basically like this, Am, C, G and D with an F bass. For those of
you that don't really understand, I'll tab it out also.

e|------------------3-3-3-3-----------|
B|--1-11--1-1-1-1---3-3-3-3--3-3-3-3--|
G|--2-22---------------------2-2-2-2--|
D|--2-22--2-2-2-2---------------------|
A|--------2/3-3-3---2-2-2-2-----------|
E|------------------3-3-3-3--2-2-2-2--|


Solo

At the start it uses octives and after the octive part is finished the Cold
guitarist is basically just soloing over it on the top e string around the frets
of 12th and 15th.

e|-------------------------------------------------------------------|
B|-------------------------------------------------------------------|
G|--10-10/-5-/-6-6--------------------10-10/-5-/6--5/6--6/8--12-12b--|
D|--x--x---x---x-x--6-6--5-5/6-6/8-8--x--x---x--x--x-x--x-x--x--x----|
A|--8--8-/-3-/-4-4--x-x--x-x-x-x-x-x--8--8-/-3-/4--3/4--4/6--10-10b--|
E|------------------4-4--3-3/4-4/6-6---------------------------------|

And that's basically it, if you have any troubles at all, just e-mail me or
private message me and I'd be glad to help. Thank you.
Comments