Cold - Gone Away Chords & Tabs

 

Gone Away Chords & Tabs

Cold Chords & Tabs

Version: 3 Type: Tab 0 ratings
1 star 2 stars 3 stars 4 stars 5 stars
comments

Gone Away Tab

Cold- Gone Away
Intro x3

Guitar 1 
C|----------------------------------------------------------------------------0--- 
G|----------3----------------3----------------------------3--------------3------3- 
Eb|-----0------0-------0---------0-------------------0-------0-------0-----0------ 
Bb|---0---0---------------0----------0-------------0---0---------------0----------
F|--0--------------2-3--------------------------0----------------2-3-------------- 
C|--------------------------------------------------------------------------------

guitar 2 C|--------------------
G|-----------------------------
Eb|---2------------------------
Bb|---2--------------5---------
F|----0----------0-2-3---------
C|----------------------------- 

Chorus 
guitar 1 x2
C|-------------------------------------------------------------------------------- 
G|--------------------------------------------------------------------------------
Eb|------------------------------------------------------------------------------- 
Bb|-------------------------------------------------------------------------------
F|------7---7-7-7-----15--15-15-15-15-15-----10---10-10-10----9--9-9-9-9-9--------
C|------5---5-5-5-----13--13-13-13-13-13-----8-----8--8--8----7--7-7-7-7-7-------- 
Guitar 2 x2
C|----------------------------------------------------------------------------- 
G|-----------------------------------------------------------------------------
Eb|-----2---2-2-2-------------------------------------------------------------- 
Bb|-----2---2-2-2------3--3-3-3-3-3-3--------5-----5-5-5-5------4--4-4-4-4-4---
F|------0---0-0-0------3--3-3-3-3-3-3--------3-----3-3-3-3------2--2-2-2-2-2--- 
C|---------------------1--1-1-1-1-1-1------------------------------------------ 
bridge
guitar 1
C|---------------17------17-----------17-------17--
G|------------x-------------------x----------------
Eb|------14---------14-------14----------14--------
Bb|------------------------------------------------ 
F|-------------------------------------------------
C|------------------------------------------------- 
3rd time
C|-------------17-----15--------12--------10-----
G|----------x---------------x-------------------- 
Eb|------14-----14------12----------9------------ 
Bb|---------------------------------------------- 
F|----------------------------------------------- 
C|----------------------------------------------- 
[ Tab from: http://www.guitartabs.cc/tabs/c/cold/gone_away_tab_ver_3.html ]
solo- guitar 1
C|----------------------------------------------------------------------
G|----------------------------------------------------------------------
Eb|----/14~~--14\9-9-10~---9-10-9------0--0---(0)----0------------------ 
Bb|------------------------------------10-10/b-10-r\-9~-----------------
F|---------------------------------------------------------------------- 
C|----------------------------------------------------------------------
 
C|-----------------------------------------------Hold------
G|------------------------------------------12/b--(12)r\---
Eb|----/14~~--14\9-9-10~---9-10-12------------------------- 
Bb|-------------------------------------------------------- 
F|---------------------------------------------------------
C|---------------------------------------------------------

C|-----/17~---17\12-12-13---12-13-15--15--15\13-13-13-12-10-12--- 
G|---------------------------------------------------------------
Eb|--------------------------------------------------------------
Bb|--------------------------------------------------------------
F|---------------------------------------------------------------
C|---------------------------------------------------------------

C|-----/17~---17\12-12-13---12-13-15--15--19---22/b-22-22-22-22-22-22--- 
G|----------------------------------------------------------------------
Eb|---------------------------------------------------------------------
Bb|---------------------------------------------------------------------
F|----------------------------------------------------------------------
C|----------------------------------------------------------------------

C|--------------------------- 
G|-----12-------------------- 
Eb|----14/b------------------ 
Bb|------------12h14~--------
F|---------------------------
C|---------------------------

guitar 2 played til solo ends
C|----------------------------------------------------------------------------- 
G|-----------------------------------------------------------------------------
Eb|-----2---2-2-2-------------------------------------------------------------- 
Bb|-----2---2-2-2------3--3-3-3-3-3-3--------5-----5-5-5-5------4--4-4-4-4-4---
F|------0---0-0-0------3--3-3-3-3-3-3--------3-----3-3-3-3------2--2-2-2-2-2--- 
C|---------------------1--1-1-1-1-1-1------------------------------------------ 

Chorus 
guitar 1 x4
C|-------------------------------------------------------------------------------- 
G|--------------------------------------------------------------------------------
Eb|------------------------------------------------------------------------------- 
Bb|-------------------------------------------------------------------------------
F|------7---7-7-7-----15--15-15-15-15-15-----10---10-10-10----9--9-9-9-9-9-------- 
C|------5---5-5-5-----13--13-13-13-13-13-----8-----8--8--8----7--7-7-7-7-7-------- 
Guitar 2 x4
C|---------------------------------------------------------------------------- 
G|----------------------------------------------------------------------------
Eb|-----2---2-2-2------------------------------------------------------------- 
Bb|-----2---2-2-2------3--3-3-3-3-3-3--------5-----5-5-5-5------4--4-4-4-4-4--
F|------0---0-0-0------3--3-3-3-3-3-3--------3-----3-3-3-3------2--2-2-2-2-2-- 
C|---------------------1--1-1-1-1-1-1-----------------------------------------
Comments