Cold - Gone Away Chords & Tabs

 

Gone Away Chords & Tabs

Cold Chords & Tabs

Version: 2 Type: Tab 0 ratings
1 star 2 stars 3 stars 4 stars 5 stars
comments

Gone Away Tab

Cold - Gone Away
Joseph Aguirre
mexicano3@hotmail.com

I think this is from some WWF soundtrack or something, either way it's
a badass song.  

Verse
e-----------------------------------------------------------
b-----------------------------------------------------------
g---------3--------------3----------------------------------
d-----1-----1--------1-----1---1----------------------------
a---3---3----------3---3-----3------------------------------
E-1------------3-4------------------------------------------
[ Tab from: http://www.guitartabs.cc/tabs/c/cold/gone_away_tab_ver_2.html ]
Chorus
Guitar 1
e-----------------------------------------------------------
b-----------------------------------------------------------
g--3-------5-6----------------------------------------------
d--3-------5-6---------6---------5--------------------------
a--1-------3-4---------6---------5--------------------------
E----------------------4---------3--------------------------

   Gone away, it's the same old, same old song

Guitar 2
e-----------------------------------------------------------
b-----------------------------------------------------------
g--3--10/7-/8-8--------13--------12-------------------------
d--x--x-/x-/x-x--------x---------x--------------------------
a--1--8-/5-/6-6--------11--------10-------------------------
E-----------------------------------------------------------

Bridge
Same as chorus 


Let me know if i messed something up or whatever, later...

Joe
  /\   \/   /\
 /  \  /\  /--\
/    \/  \/    \
Comments