Cold - Gods Song Chords & Tabs

 

Gods Song Chords & Tabs

Cold Chords & Tabs

Version: 1 Type: Tab 0 ratings
1 star 2 stars 3 stars 4 stars 5 stars
comments

Gods Song Tab

   
Gods Song - by COLD

by: Brad Heitmeyer

im almost certian this is how the song goes, liten to the song for the best rythem.
verse is just clean guitar
on chorus there is alot of distortion
on solo there is a wah effect, not sure which one

this tab sounds good acoustic also


standard Tuning - E A D G B E

verse: REPEAT 4 TIMES ON EACH VERSE

E-----------------------------------------------------------------------/
B---------7---6---7---9---7---6------7---6---7---11---7---6-------------/
G-----------------------------------------------------------------------/
D-----------------------------------------------------------------------/
A-----------------------------------------------------------------------/
E-----------------------------------------------------------------------/


Chorus: REPEAT 2 TIMES ON EACH CHORUS

E------------------------------------------------/
B------------------------------------------------/
G----------3-------------------------------------/
D----------3----------4----------9---------------/
A----------1----------4----------9---------------/
E---------------------2----------7---------------/


Solo:
[ Tab from: http://www.guitartabs.cc/tabs/c/cold/gods_song_tab.html ]
E---11---11---14---16---18---14---11-11-11-11-----|
B-------------------------------------------------|
G-------------------------------------------------|
D-------------------------------------------------|
A-------------------------------------------------|
E-------------------------------------------------|


E-------------------------------------------------|
B---14---12---11---12---12p9----------------------|
G-------------------------------------------------|
D-------------------------------------------------|
A-------------------------------------------------|
E-------------------------------------------------|


E--------------------------------------------------|
B---11---12---14--12--7---9---11---7---------------|
G--------------------------------------------------|
D--------------------------------------------------|
A--------------------------------------------------|
E--------------------------------------------------|


E------14---14---14---------16---16---16---16------|
B---12---12---12---------14---14---14---14---14----|
G--------------------------------------------------|
D--------------------------------------------------|
A--------------------------------------------------|
E--------------------------------------------------|

thats about is

have fun
Comments