Cold - Go Away Chords & Tabs

 

Go Away Chords & Tabs

Cold Chords & Tabs

Version: 2 Type: Bass Tab 0 ratings
1 star 2 stars 3 stars 4 stars 5 stars
comments

Go Away Bass Tab

   
===================================================================
	Band:   Cold
	Song:   Go Away
	Album:  Cold
	Author: Obsidian (creatorofsong@hotmail.com)
	Tuning: C, F, Bb, Eb
	Notes:  The bridge isn't exact, and this song makes no 
	serious indication toward timing. Use your best judgement.
===================================================================

Intro/Verse:
Eb|-----------------------|-----------------------|
Bb|-----------------------|-----------------------|
F |-----------------------|-----------------------|
C |-0--00-00-00-00-00-02--|-0--00-00-00-00-00-020-|
(Repeat until chorus)
[ Tab from: http://www.guitartabs.cc/tabs/c/cold/go_away_btab_ver_2.html ]
Chorus:
Eb|-------------|-------------|-----------------------|-------------------------|
Bb|-------------|-------------|-----------------------|-------------------------|
F |-3--3--3--3--|-------------|-----------------------|-------------------------|
C |-------------|-3--3--3--3--|-0--00-00-00-00-00-020-|-0--00-00-00-00-00-00-00-|
(Repeat until "make him feel the pain")

Repeat verse
Repeat chorus

Bridge:
Eb|-----------|-----------|-------------|--------------|
Bb|-----5-----|-----5-----|-------------|--------------|
F |-5-5---5---|-3-3---3---|-2-----------|-2----------3-|
C |-----------|-----------|---3---------|----3---------|
(Repeat until "pseudo-***ing-FREAK")

Eb|-----------|
Bb|-----------|
F |-2---------|
C |---3-3-3-3-|
(Repeat 4x)

Repeat intro
Repeat chorus
Repeat intro till end.
Comments