Cold - Give Chords & Tabs

 

Give Chords & Tabs

Cold Chords & Tabs

Version: 2 Type: Tab 0 ratings
1 star 2 stars 3 stars 4 stars 5 stars
comments

Give Tab

#--------------------------------------------------------------------------------#
# This file is the author's own work and represents their interpretation of the  #
# song. You may only use this file for private study, scholarship, or research.  #
#--------------------------------------------------------------------------------#


Author/Artist: Cold
Title: Give
Album: Cold
Transcribed by: Aaron B.
Email: Acidbath666x@cs.com


Tuning Info - CDCFAD

In Other Words Drop D down whole step.
    
   This song is very easy except you really have to listen to the cd closely to get
 the back ground lead right. Also I have not listed the timing so you will have to
 listen to the cd to find that out as well. One more thing to add is that you must 
 use a lot of chorus or phaser for all lead parts.


INTRO - Starts off with both guitars 
D----------------------------------------------------------------------------------
A----------------------------------------------------------------------------------
F----------------------------------------------------------------------------------
C--0-0-0-0-8-8-8-8-3-3-3-3-1-1-1-1-------------------------------------------------
D--0-0-0-0-8-8-8-8-3-3-3-3-1-1-1-1-------------------------------------------------
C--0-0-0-0-8-8-8-8-3-3-3-3-1-1-1-1-------------------------------------------------
                                                                              

D--------------------------------------------------------------------------------
A--------------------------------------------------------------------------------
F--------------------------------------------------------------------------------
C--0-0-0-0-8-8-8-8-3-3-3-3-0-0-1-1-0-0-1-----------------------------------------
D--0-0-0-0-8-8-8-8-3-3-3-3-0-0-1-1-0-0-1-----------------------------------------
C--0-0-0-0-8-8-8-8-3-3-3-3-0-0-1-1-0-0-1-----------------------------------------
                                                                       
INTRO LEAD - Guitar 2 plays this while Guitar 1 continues with above riff
D-----------------------------------------------------------------------------
A-----------------------------------------------------------------------------
F--7-7-7-7-15-15-15-15-10-10-10-10-8-8-8-8------------------------------------
C-----------------------------------------------------------------------------
D-----------------------------------------------------------------------------
C-----------------------------------------------------------------------------
                                          
CHORUS - Both Guitars
D---------------------------------------------------------------------------------
A---------------------------------------------------------------------------------
F---------------------------------------------------------------------------------
C--0-0-0-0-8-8-8-8-3-3-3-3-1-1-1-1------------------------------------------------
D--0-0-0-0-8-8-8-8-3-3-3-3-1-1-1-1------------------------------------------------
C--0-0-0-0-8-8-8-8-3-3-3-3-1-1-1-1------------------------------------------------
                                                                              
[ Tab from: http://www.guitartabs.cc/tabs/c/cold/give_tab_ver_2.html ]
D--------------------------------------------------------------------------------
A--------------------------------------------------------------------------------
F--------------------------------------------------------------------------------
C--0-0-0-0-8-8-8-8-3-3-3-3-0-0-1-1-0-0-1-----------------------------------------
D--0-0-0-0-8-8-8-8-3-3-3-3-0-0-1-1-0-0-1-----------------------------------------
C--0-0-0-0-8-8-8-8-3-3-3-3-0-0-1-1-0-0-1-----------------------------------------
                                                            
VERSE - Guitar 1
D--------------------------------------------------------------------------
A--------------------------------------------------------------------------
F--------------------------------------------------------------------------
C--5-5-5-5-5-5-5-5-3-3-3-3-3-3-3-3-1-1-1-1-1-1-1-1-3-3-3-3-3-3-3-3---------
D--5-5-5-5-5-5-5-5-3-3-3-3-3-3-3-3-1-1-1-1-1-1-1-1-3-3-3-3-3-3-3-3---------
C--5-5-5-5-5-5-5-5-3-3-3-3-3-3-3-3-1-1-1-1-1-1-1-1-3-3-3-3-3-3-3-3---------
                                                                       
VERSE LEAD - Guitar 2
D-----------------------------------------------------------------------------------------
A------3----------------------------------------------------------------------------------
F----0-------0-------3-------0------------------------------------------------------------
C--0-------3-------1-------3--------------------------------------------------------------
D--------3-------1-------3----------------------------------------------------------------
C-----------------------------------------------------------------------------------------
                                                               
BREAK p1- Starts off with both guitars
D-----------------------------------------------------------------------------------
A-----------------------------------------------------------------------------------
F-----------------------------------------------------------------------------------
C--5-5-5-5----3-3-3-3----1-1-1-1----3-3-3-3-----------------------------------------
D--5-5-5-5----3-3-3-3----1-1-1-1----3-3-3-3-----------------------------------------
C--5-5-5-5----3-3-3-3----1-1-1-1----3-3-3-3-----------------------------------------
     PM each of these

BREAK p2 - Both Guitars played directly after Break p1
D---------------------------------------------------------------------------------
A---------------------------------------------------------------------------------
F---------------------------------------------------------------------------------
C--5-5-5-8-8-3--3-1-1-1--------0-0-0-8-8-3--3-1-1-1-------------------------------
D--5-5-5-8-8-3--3-1-1-1--------0-0-0-8-8-3--3-1-1-1-------------------------------
C--5-5-5-8-8-3--3-1-1-1--------0-0-0-8-8-3--3-1-1-1-------------------------------
                                               
BREAK LEAD - Played while Guitar 1 plays Break p1
D--10-10-10-10-18-18-18-18-13-13-13-13-11-11-11-11-------------------------------
A--------------------------------------------------------------------------------
F--------------------------------------------------------------------------------
C--------------------------------------------------------------------------------
D--------------------------------------------------------------------------------
C--------------------------------------------------------------------------------
                                                              
OUTRO - Starts out with both guitars
D-----------------------------------------------------------------------------
A-----------------------------------------------------------------------------
F-----------------------------------------------------------------------------
C--5-5-5-5-5-5-5-5-3-3-3-3-3-3-3-3-1-1-1-1-1-1-1-1-3-3-3-3-3-3-3-3------------
D--5-5-5-5-5-5-5-5-3-3-3-3-3-3-3-3-1-1-1-1-1-1-1-1-3-3-3-3-3-3-3-3------------
C--5-5-5-5-5-5-5-5-3-3-3-3-3-3-3-3-1-1-1-1-1-1-1-1-3-3-3-3-3-3-3-3------------
                                                                              
OUTRO - Guitar 2 plays this while Guitar 1 continues to play above riff
D--6-6\5-5/6-6/8----------------------------------------------------------------
A-------------------------------------------------------------------------------
F-------------------------------------------------------------------------------
C-------------------------------------------------------------------------------
D-------------------------------------------------------------------------------
C-------------------------------------------------------------------------------



Comments