Cold - Feel It In Your Heart Chords & Tabs

 

Feel It In Your Heart Chords & Tabs

Cold Chords & Tabs

Version: 1 Type: Tab

Feel It In Your Heart Tab

   
----------------------------------------------------------------------------

	          FEEL IT IN YOUR HEART - COLD                  
----------------------------------------------------------------------------
Tabbed by: Joey Gunter
Email:  joey_gunter@hotmail.com

Tuning: Drop D
                                Intro

e|-----------6-4------------------------------8---------8-------------------|
B|---------------6----------------------------------------------------------|
G|--------------------------------------------------------------------------|
D|-------6-6---------------------------10-10---------10---------------------|
A|-----4----------------------------8----------------10---------------------|
E|--------------------------------------------------------------------------|
[ Tab from: http://www.guitartabs.cc/tabs/c/cold/feel_it_in_your_heart_tab.html ]
e|------------6-4-----------------------------8------6----------------------|
B|----------------6----------------------------------------------------------|
G|---------------------------------------------------------------------------|
D|-------6-6----------------------------10-10----10--------------------------|
A|----4------------------------------8--------------------------------------|
E|--------------------------------------------------------------------------|
                           Verse
e|---------------------------------------------------------------------------|
B|---------------------------------------------------------------------------|
G|---------------------------------------------------------------------------|
D|-----6------------------------------------3--------------------------------|
A|-----4------------------------------------3--------------------------------|
E|-----x------------------------------------3--------------------------------|
  can't run a way from love             if you cannot feel
e|---------------------------------------------------------------------------|
B|---------------------------------------------------------------------------|
G|---------------------------------------------------------------------------|
D|-----6------------------------------------3---------------------1----------|
A|-----4------------------------------------3---------------------1----------|
E|-----x------------------------------------3---------------------1----------|
  everything falls apart                in a tragedy
e|---------------------------------------------------------------------------|
B|---------------------------------------------------------------------------|
G|---------------------------------------------------------------------------|
D|-----6------------------------------------3--------------------------------|
A|-----4------------------------------------3--------------------------------|
E|-----x------------------------------------3--------------------------------|
  i am so far away from god             i just wanna be here
e|---------------------------------------------------------------------------|
B|---------------------------------------------------------------------------|
G|---------------------------------------------------------------------------|
D|-----6------------------------------------3---------------------1----------|
A|-----4------------------------------------3---------------------1----------|
E|-----x------------------------------------3---------------------1----------|
  everyone falls apart                      in my symphany
                          
                           Chorus
e|---------------------------------------------------------------------------|
B|---------------------------------------------------------------------------|
G|---------------------------------------------------------------------------|
D|-----3------------------------------------6--------------------------------|
A|-----1------------------------------------4--------------------------------|
E|-----x------------------------------------x--------------------------------|
  Can you feel this                       Can you take
e|---------------------------------------------------------------------------|
B|---------------------------------------------------------------------------|
G|---------------------------------------------------------------------------|
D|-----3------------------------------------1--------------------------------|
A|-----3------------------------------------1--------------------------------|
E|-----3------------------------------------1--------------------------------|
  i don't want you to pretend             i don't wanna be alone



everything just repeats after this.  Nothing changes.  The intro is a little
trickier than the way i tabbed it but i'm kinda new at this so maybe it's a good
enough foundation you can figure it out from there.  I dunno what to tell ya,
sounds right when i play it. LOL

| /  slide up
| \  slide down
| h  hammer-on
| p  pull-off
| ~  vibrato
| +  harmonic
| x  Mute note
===============================================================================