Cold - Everyone Dies Chords & Tabs

 

Everyone Dies Chords & Tabs

Cold Chords & Tabs

Version: 2 Type: Tab 0 ratings
1 star 2 stars 3 stars 4 stars 5 stars
comments

Everyone Dies Tab

Transcribed by - Michael Doyle 
Contact me at goawey@hotmail.com
http://www.iol.ie/~cold

tuning - C F Bb Eb G C (two whole steps/4 frets down)


Everyone Dies


Intro

|----------|------------|----------|-----------|---------|
|----------|------------|----------|-----------|---------|
|--9-------|-10---12----|-9--------|-10--7-----|-9-------|Chorus, Delay and ? 
|----------|------------|----------|-----------|---------|
|----------|------------|----------|-----------|---------|
|----------|------------|----------|-----------|---------|


Verse 1
|----------|------------|----------|-----------|---------|
|----------|------------|----------|-----------|---------|
|-10---12--|-9----------|-10---7---|-----------|---------|
|----------|------------|----------|-7---------|---------|
|----------|------------|----------|-----------|---------|
|----------|------------|----------|-----------|---------|

Chorus 1
|---------------------------------------------|
|--3-3-3-3-3-3-3-3-3-3------------------------|
|--2-2-2-2-2-2-2-2-2-2-5-5-5-5-5-5-5-5-5-5----|Phaser & Distortion
|--0-0-0-0-0-0-0-0-0-0-5-5-5-5-5-5-5-5-5-5-2--|
|----------------------3-3-3-3-3-3-3-3-3-3-2--|
|------------------------------------------0--|

|---------------------------------------------|
|--3-3-3-3-3-3-3-3-3-3------------------------|
|--2-2-2-2-2-2-2-2-2-2-5-5-5-5-5-5-5-5-5-5----|
|--0-0-0-0-0-0-0-0-0-0-5-5-5-5-5-5-5-5-5-5-2--|
|----------------------3-3-3-3-3-3-3-3-3-3-2--|
|------------------------------------------0--|

|---------------------------------------------|
|--3-3-3-3-3-3-3-3-3-3------------------------|
|--2-2-2-2-2-2-2-2-2-2-5-5-5-5-5-5-5-5-5-5----|
|--0-0-0-0-0-0-0-0-0-0-5-5-5-5-5-5-5-5-5-5-2--|
|----------------------3-3-3-3-3-3-3-3-3-3-2--|
|------------------------------------------0--|

|---------------------------------------------|
|--3-3-3-3-3-3-3-3-3-3------------------------|
|--2-2-2-2-2-2-2-2-2-2-5-5-5-5-5-5-5-5-5-5----|
|--0-0-0-0-0-0-0-0-0-0-5-5-5-5-5-5-5-5-5-5-2--|
|----------------------3-3-3-3-3-3-3-3-3-3-2--|
|------------------------------------------0--|

|---------|-----------|---------|
|---------|-----------|---------|
|-9-------|-10---12---|-9-------|Distortion & feedback
|---------|-----------|---------|
|---------|-----------|---------|
|---------|-----------|---------|

Verse 2
|----------|------------|----------|-----------|---------|
|----------|------------|----------|-----------|---------|
|-10---12--|-9----------|-10---7---|-----------|---------|
|----------|------------|----------|-7---------|---------|
|----------|------------|----------|-----------|---------|
|----------|------------|----------|-----------|---------|

Chorus 2
|---------------------------------------------|
|--3-3-3-3-3-3-3-3-3-3------------------------|
|--2-2-2-2-2-2-2-2-2-2-5-5-5-5-5-5-5-5-5-5----|
|--0-0-0-0-0-0-0-0-0-0-5-5-5-5-5-5-5-5-5-5-2--|
|----------------------3-3-3-3-3-3-3-3-3-3-2--|
|------------------------------------------0--|

|---------------------------------------------|
|--3-3-3-3-3-3-3-3-3-3------------------------|
|--2-2-2-2-2-2-2-2-2-2-5-5-5-5-5-5-5-5-5-5----|
|--0-0-0-0-0-0-0-0-0-0-5-5-5-5-5-5-5-5-5-5-2--|
|----------------------3-3-3-3-3-3-3-3-3-3-2--|
|------------------------------------------0--|

|---------------------------------------------|
|--3-3-3-3-3-3-3-3-3-3------------------------|
|--2-2-2-2-2-2-2-2-2-2-5-5-5-5-5-5-5-5-5-5----|
|--0-0-0-0-0-0-0-0-0-0-5-5-5-5-5-5-5-5-5-5-2--|
|----------------------3-3-3-3-3-3-3-3-3-3-2--|
|------------------------------------------0--|
[ Tab from: http://www.guitartabs.cc/tabs/c/cold/everyone_dies_tab_ver_2.html ]
|---------------------------------------------|
|--3-3-3-3-3-3-3-3-3-3------------------------|
|--2-2-2-2-2-2-2-2-2-2-5-5-5-5-5-5-5-5-5-5----|
|--0-0-0-0-0-0-0-0-0-0-5-5-5-5-5-5-5-5-5-5-2--|
|----------------------3-3-3-3-3-3-3-3-3-3-2--|
|------------------------------------------0--|

Bridge
|---------|-----------|
|---------|-----------|
|-10------|-12^-------|
|---------|-----------|
|---------|-----------|
|---------|-----------|

|---------------|---------------|---------------|---------------|
|---------------|---------------|---------------|---------------|
|-----7---5---4-|-----7---5---4-|-----7---5---4-|-----7---5---4-|
|--7------------|--7------------|--7------------|--7------------|
|---------------|---------------|---------------|---------------|
|---------------|---------------|---------------|---------------|
 
|---------------|---------------|---------------|---------------|
|---------------|---------------|---------------|---------------|
|-----7---5---4-|-----7---5---4-|-----9^-----9^-|-----9^-----9^-|
|--7------------|--7------------|-----7^-----7^-|-----7^-----7^-|
|---------------|---------------|---------------|---------------|
|---------------|---------------|-0-0---0-0-----|-0-0---0-0-----|palm mute this string

|---------------|---------------|---------------|---------------|
|---------------|---------------|---------------|---------------|
|-----7---5---4-|-----7---5---4-|-----9^-----9^-|-----9^-----9^-|
|--7------------|--7------------|-----7^-----7^-|-----7^-----7^-|
|---------------|---------------|---------------|---------------|
|---------------|---------------|-0-0---0-0-----|-0-0---0-0-----|palm mute this string

|---------------|---------------|---------------|---------------|
|---------------|---------------|---------------|---------------|
|-----7---5---4-|-----7---5---4-|-----9^-----9^-|-----9^-----9^-|
|--7------------|--7------------|-----7^-----7^-|-----7^-----7^-|
|---------------|---------------|---------------|---------------|
|---------------|---------------|-0-0---0-0-----|-0-0---0-0-----|palm mute this string


Outro

|-------------------------|-------------------------|-------------------------|-------------------------|
|-------------------------|-------------------------|-------------------------|-------------------------|
|-------------------------|-------------------------|-------------------------|-------------------------|
|-------------------------|-------------------------|-------------------------|-------------------------|
|-------5----3--3h5p3p0---|-------5----3--3h5p3p0---|-------5----3--3h5p3p0---|-------5----3--3h5p3p0---|
|--0----------------------|--0----------------------|--0----------------------|--0----------------------|

|-------------------------|-------------------------|-------------------------|-------------------------|
|-------------------------|-------------------------|-------------------------|-------------------------|
|-------------------------|-------------------------|-------------------------|-------------------------|
|-------------------------|-------------------------|-------------------------|-------------------------|
|-------5----3--3h5p3p0---|-------5----3--3h5p3p0---|-------5----3--3h5p3p0---|-------5----3--3h5p3p0---|
|--0----------------------|--0----------------------|--0----------------------|--0----------------------|

|-------------------------|-------------------------|-------------------------|-------------------------|
|-------------------------|-------------------------|-------------------------|-------------------------|
|-------------------------|-------------------------|-------------------------|-------------------------|
|-------------------------|-------------------------|-------------------------|-------------------------|
|-------5----3--3h5p3p0---|-------5----3--3h5p3p0---|-------5----3--3h5p3p0---|-------5----3--3h5p3p0---|
|--0----------------------|--0----------------------|--0----------------------|--0----------------------|
Comments