Cold - End Of The World Acoustic Chords & Tabs

 

End Of The World Acoustic Chords & Tabs

Cold Chords & Tabs

Version: 1 Type: Tab 0 ratings
1 star 2 stars 3 stars 4 stars 5 stars
comments

End Of The World Acoustic Tab

Artist    : Cold
song      : End of the World  acoustic version
tabbed by : Christian Strowitzki
tuning    : standart C  (2 steps down)


verse
-----0--------3-------0---------3-----|
-----0----3---3-------0----1----3-----|
-----2----2---0-------2----0----0-----|
-----2----0---x-------2----x----0-----|
-----0----0---3-------0----3----2-----|
--------------------------------3-----|

riff 1 (play this before 1st chorus intead of the last two chords)
-----------------------|
-----------------------|
--------0-----0--------|
------2-----0---0------|
----3-----2-------0----|
-----------------------|

chorus
----0----0--------------|
----0----1----1----0----|
----2----0----2----0----|
----2----2----3----2----|
----0----3----3----2----|
--------------1----0----|

riff 2 (play this after 1st chorus)
---------------------------------|
--------0------0--0h1p0-----0----|
----------2-------------2--------|
------2------2-------------------|
----0---------------------0------|
---------------------------------|

bridge  (it's my world...)
----------------------------------------------------|
-------0-0-0-1--1-1-1-1-0-----0-0-0-1--1-1-1-1-0----|
----2--2-2-2-2--2-2-2-2-2--0--0-0-0-0--0-0-0-0-0----|
----2--2-2-2-2--2-2-2-2-2--2--2-2-2-2--2-2-2-2-2----|
----0--0-0-0-0--0-0-0-0-0--3--3-3-3-3--3-3-3-3-3----|
----------------------------------------------------|
[ Tab from: http://www.guitartabs.cc/tabs/c/cold/end_of_the_world_acoustic_tab.html ]
----------------------------------------------------|
-------0-0-0-1--1-1-1-1-0-----0-0-0-1--1-1-1-1-3----|
----2--2-2-2-2--2-2-2-2-2--0--0-0-0-0--0-0-0-0-0----|
----3--3-3-3-3--3-3-3-3-3--2--2-2-2-2--2-2-2-2-2----|
----3--3-3-3-3--3-3-3-3-3--2--2-2-2-2--2-2-2-2-2----|
----1--1-1-1-1--1-1-1-1-1--0--0-0-0-0--0-0-0-0-0----|

last chorus
-----------------------------------|
--------------0---------------0----|
------2------0---------------0-----|
-----2------2--------3------2------|
----0------3--------3------2-------|
-------------------1------0--------|

----0----0--------------|
----0----1----1----0----|
----2----0----2----0----|
----2----2----3----2----|
----0----3----3----2----|
--------------1----0----|


outro - same as bridge

end on
---------|
---------|
----2----|
----2----|
----0----|
---------|


lyrics
______

everyone came around here
everyone else got sick
and watch the clock tickin slowly,
everyone knew the ending,
opened a bag of tricks,
and stumbled over their own,

they blew minds away,
sort of the crippelin just like thunder.
now its gone today
well i'm so happy that it's on.

well it's the end of the world.
well it's the end of the world.
well it's the end of the world.
well it's the end of the world.

now it's far away in a hurricane,
twistin slowly
now its gone today
well i'm so happy that it's on.

well it's the end of the world.
well it's the end of the world.
well it's the end of the world.
well it's the end of the world.

it's my world, my love, my gun,
it's my world, my love, my gun,

well it's the end of the world.
well it's the end of the world.
well it's the end of the world.
well it's the end of the world.


now i'm all alone, kept the pain inside,
wanna torch the world, cause i'm breathin fire.
yes i'm all alone, kept the pain inside,
wanna torch the world, cause i'm breathin fire.
Comments