Cold - Confession Chords & Tabs

 

Confession Chords & Tabs

Cold Chords & Tabs

Version: 4 Type: Tab 0 ratings
1 star 2 stars 3 stars 4 stars 5 stars
comments

Confession Tab

   
Artist: Cold
Song: Confession
Album: 13 Ways to Bleed Onstage
Tabbed by: Kyle MacDonald (kylehnat@hotmail.com)

Tuning: Drop D (DADGBE)

Cold uses straight C tuning on all their songs, but drop D works really well for this
song.  A capo on the first fret makes the verse riff and bridge easier to play, but is
not necessary.  This is a really cool song to play!

^ = bend
/ = slide
 
Intro/Verse
E|--------------------------------|
B|---2-1-2---2-1-2---2-1-2---2-1-2|
G|-3-------3-------1-------1------|
D|--------------------------------|
A|--------------------------------|
D|--------------------------------|

(Intro/Verse cont.)
E|--------------------------------|
B|---2-1-2---2-1-2---2-1-2---2-1-2|
G|--------------------------------|
D|-3-------3-------4-------4------|
A|--------------------------------|
D|--------------------------------|
[ Tab from: http://www.guitartabs.cc/tabs/c/cold/confession_tab_ver_4.html ]
Chorus
E|--------------------------------|
B|--------------------------------|
G|--------------------------------|
D|-8--8--8-888--6--6--6-666-------|
A|-8--8--8-888--6--6--6-666-------|
D|-8--8--8-888--6--6--6-666-------|

(Chorus cont.)
E|--------------------------------|
B|--------------------------------|
G|--------------------------------|
D|-3-3-xxxx-3-3-xxxx-3/4-44-4/6-66|
A|-3-3-xxxx-3-3-xxxx-3/4-44-4/6-66|
D|-3-3-xxxx-3-3-xxxx-3/4-44-4/6-66|

Bridge
E|--------------------------------|
B|--------------------------------|
G|--------------------------------|
D|---3---3----3---3^-3-----3---3--|
A|-1---1--------------------------|
D|----------6---6--------3---3----|

(Bridge cont.)
E|--------------------------------|
B|--------------------------------|
G|--------------------------------|
D|-----3-------1------------------|
A|---4---4---1---1----------------|
D|-4-------1----------------------|


Intro/Verse x4
Chorus      x1
Verse       x3
Chorus      x2
Bridge      x3
Chorus      x5

End on:
E|------|
B|------|
G|------|
D|-8----|
A|-8----|
D|-8----|

------------------------------------------------------------------------
Comments