Cold - Confession Chords & Tabs

 

Confession Chords & Tabs

Cold Chords & Tabs

Version: 3 Type: Tab 0 ratings
1 star 2 stars 3 stars 4 stars 5 stars
comments

Confession Tab

   
Artist: Cold
Song: Confession
Album: 13 Ways To Bleed On Stage
Tuning: C tuning
tabbed by: James Jarvis (down_with_da_sickness@hotmail.com)

p=pull-off
h=hammer-on
x=mute
b=bend
pm=palm mute (cut off the note after you strike it)

I saw the previous tab for this song and noticed immediately that it was 
way off, so heres my version. Its not all exact, but its pretty close.

Intro/Verse:
--------------------------------------------
-----4p3h4-----4p3h4------4p3h4-----4p3h4---
--5---------5----------3---------3----------
--------------------------------------------
--------------------------------------------
--------------------------------------------

--------------------------------------------
-----4p3h4-----4p3h4------4p3h4-----4p3h4---
--0---------0----------1---------1----------
--------------------------------------------
--------------------------------------------
--------------------------------------------
[ Tab from: http://www.guitartabs.cc/tabs/c/cold/confession_tab_ver_3.html ]
Chorus:
--------------------------------------------
--------------------------------------------
--5-5-5-5-5-5-5-5--3-3-3-3-3-3-3-3----------
--5-5-5-5-5-5-5-5--3-3-3-3-3-3-3-3----------
--3-3-3-3-3-3-3-3--1-1-1-1-1-1-1-1----------
--------------------------------------------

--------------------------------------------
--------------------------------------------
--------------------------------------------
--------------------------------------------
--5-5-x-x-x-x-5-5-x-x-x-x-5h6-6-6/8-8-8-----
--5-5-x-x-x-x-5-5-x-x-x-x-5h6-6-6/8-8-8-----

Bridge:
--------------------------|-----------------
--------------------------|-----------------
--------------------------|----0-----0------
-----5-----5b------5-----3|-----------------
--3-----3-------3-----1---|-1-----1---------
--------------------------|-----------------
pm........................................
repeat first bar twice before going to the second bar, then play it over again once 
then go into...

--------------------------------------------
--------------------------------------------
--------------------------------------------
--------5b----------------------------------
--3--3---------1--1--1--1--0--0--0--0-------
--3--3------3--1--1--1--1--0--0--0--0-------
pm....
after this part play the chorus over until the song ends.
Comments