Cold - Confession Chords & Tabs

 

Confession Chords & Tabs

Cold Chords & Tabs

Version: 1 Type: Bass Tab 0 ratings
1 star 2 stars 3 stars 4 stars 5 stars
comments

Confession Bass Tab

tabbed by chase
intro

Gb---------------------------------------------------------|
Db---------------------------------------------------------|
Ab--2--2--0--2--0--2---------------------------------------|
Eb------------------------------5--3--5----3--5--3--5------|


Gb---------------------------------------------------------|
Db---------------------------------------------------------|
Ab----------------------------0--2--0-----------------0--0-|
Eb--2--0--2----0--2--0--2--3-----------0--2--3---3--3------|


main verse

Gb--------------------------------------------------------|
Db--------------------------------------------------------|
Ab--22222222222222---00000000000000-----------------------|
Eb---------------------------------------22222222222222---|


Gb-------------------------------|
Db-------------------------------|
Ab----------------0000000--------|
Eb--3333333----------------------|


chorus
[ Tab from: http://www.guitartabs.cc/tabs/c/cold/confession_btab.html ]
Gb--------------------------------------------------------|
Db--------------------------------------------------------|
Ab--2-2-2-2-2-2---0-0-0-0-0-0-----------------------------|
Eb------------------------------2-2---2-2----3-3-3-3-3-3--|
interlude

Gb------------------------------------------------|
Db------------------------------------------------|
Ab--2--2--0--2~--0--2----0~-----------------------|(x2) then
Eb---------------------------------3~----2~----0~-|


Gb----------------------------------------------------------|
Db----------------------------------------------------------|
Ab---2--2--0--2--0--2~----0~--------------------------------|
Eb------------------------------------3~----0-----0---------|


outro

Gb------------------------------------------------------|
Db------------------------------------------------------|
Ab--2-2-2-2-2-2---0-0-0-0-0-0---------------------------|
Eb-----------------------------2-2---2-2----3-3-3-3-3-3-|
Comments