Cold - Change The World Chords & Tabs

 

Change The World Chords & Tabs

Cold Chords & Tabs

Version: 1 Type: Bass Tab 0 ratings
1 star 2 stars 3 stars 4 stars 5 stars
comments

Change The World Bass Tab

Cold - Change the World
Album: Year of the Spider

Tabbed By: Dave C.

K-Kill note

This song is really easy to play. Theres nothin, really important to learn,
it's pretty straight forward. just, listen to the song. Enjoy :)

0:25          Verse 1.1 3x          0:37        Verse 1.2  1x
G|---------------|---------------| |---------------|---------------|
D|---------------|---------------| |---------------|---------------|
A|---------------|---------------| |---------------|---------------|
E|3-3-3-3-3-3-3-3|4-4-4-4-4-4-4-4| |3-3-3-3-3-3-3-3|4K-------------|

0:42                          Chorus     2x
G|---------------|---------------|---------------|---------------|
D|---------------|---------------|---------------|---------------|
A|---------------|3-3-3-3-3-3-3-3|---------------|---------------|
E|5-5-5-5-5-5-5-5|---------------|2-2-2-2-2-2-2-2|2-2-2-2-2-2-2-2|

0:58 Verse 1.1 9x
[ Tab from: http://www.guitartabs.cc/tabs/c/cold/change_the_world_btab.html ]
1:36 Verse 1.2 1x

1:40 Chorus 4x

2:13 Bass Rest

2:38                            Bridge
G|---------------|---------------|---------------|---------------|
D|---------------|---------------|---------------|---------------|
A|2-2-2-2-2-2-2-2|3-3-3-3-3-3-3-3|0-0-0-0-0-0-0-0|---------------|
E|---------------|---------------|---------------|3-3-3-3-3-3-3-3|

G|---------------|---------------|---------------|---------------|
D|---------------|---------------|---------------|---------------|
A|2-2-2-2-2-2-2-2|3-3-3-3-3-3-3-3|0-0-0-0-0-0-0-0|---------------|
E|---------------|---------------|---------------|3K-------------|

2:55 Chorus 6x

3:45          End On
G|---------------|---------------|---------------|---------------|
D|---------------|---------------|---------------|---------------|
A|---------------|3~~~~~~~~~~~~~~|---------------|---------------|
E|5~~~~~~~~~~~~~~|---------------|2~~~~~~~~~~~~~~|~~~~~~~~~~~~~~~|
Comments