Cold - Bleed Chords & Tabs

 

Bleed Chords & Tabs

Cold Chords & Tabs

Version: 9 Type: Tab 0 ratings
1 star 2 stars 3 stars 4 stars 5 stars
comments

Bleed Tab

-------------------------------------------------------------------------------
			     BLEED - Cold
-------------------------------------------------------------------------------

By:Lachrymal

Tuned to Dropped Db
[ Tab from: http://www.guitartabs.cc/tabs/c/cold/bleed_tab_ver_9.html ]
Verse:
eb|---------|---------|---------|---------|
Bb|----4--4-|----2--4-|----2--2-|---0---2-|
Gb|-----6---|-----4---|-----3---|---------|
Db|--6------|--4------|--3------|--2---4--|
Ab|-4-4--4--|-2-2--2--|-1-1--1--|-0---2---|
Db|---------|---------|---------|---------|

Chorus:
eb|---------|---------|---------|---------|
Bb|---------|---------|---------|---------|
Gb|----4--4-|----4--4-|----4--4-|----4--4-|
Db|-----4---|-----4---|--4--4---|--4--4---|
Ab|--2---2--|--1---1--|-2-2--2--|-0-0--0--|
Db|-2-2-----|-1-1-----|---------|---------|

the second guitar plays something else, i haven't
figured it out yet.
Comments