Cold - Bleed Chords & Tabs

 

Bleed Chords & Tabs

Cold Chords & Tabs

Version: 4 Type: Tab 0 ratings
1 star 2 stars 3 stars 4 stars 5 stars
comments

Bleed Tab

first i would like to say that this is my first tab so if i mess up or anything e mail me at cold78155@yahoo.com   
standard  tuning

  verse      -----------------------------------0--------0
         ------------------7--------------------------
         --------------0---------------0----------0---
         ---------5------------------5--------5------ 
         ------7------------------5---------4--------
         --------------------------------------------



[ Tab from: http://www.guitartabs.cc/tabs/c/cold/bleed_tab_ver_4.html ]
chours  -------------------3------------3-----------------
        ----------------------3-----------3--------------- 
        ---------------0-------0-------0----0--------------
        ------------0-----------------0-------------------
        ----------0------------------0------------------- 
        --------3------------------2---------------------

        -----------2-----------------2----------------------
        ---------2---2--------------2----------------------
        -------0--------0----------0---0--------------------
        -----0-------------------0--------------------------
        ----3------------------2----------------------------
        ---------------------------------------------------



        thats pretty much it i dont really know what arron  
        lewis is playing have any commets on just bored    
        email me cold78155@yahoo.com

        wait one more thing cold kicks assssssssss!!!!!!!!
Comments