Cold - Bleed Chords & Tabs

 

Bleed Chords & Tabs

Cold Chords & Tabs

Version: 3 Type: Tab 0 ratings
1 star 2 stars 3 stars 4 stars 5 stars
comments

Bleed Tab

Cold, bleed.
 Tabbed by loje, idiotsjump@hotmail.com.
  
tuning: drop d

I tried this by ear, and this is my first time showing off tabs. It's easier to play with youyr thumb and index finger too.

verse-

|---------------------------------------------------
|---------4---------------2-----------------2-------
|---------------------------------------------------
|-----2-------2---------2-----2---------2-------2---
|---4---4---4---0-----2-----2---0-----1---1---1---1-
|---------------------------------------------------
[ Tab from: http://www.guitartabs.cc/tabs/c/cold/bleed_tab_ver_3.html ]
|------------------------
|------2------2----------
|------------------------
|----2------2------------
|--0------2--------------
|------------------------

chorus-

|---------------------------------------------------
|-------0-----------0-----------0-----------0-------
|---------------------------------------------------
|---------------------------------------------------
|----2------2-----2-----2-----4-----4-----2-----2---
|--2------2---0-1-----1---0-6-----6---6-4-----4---4-

I'd take hints if you want (stop, you suck, etc.)

-loje 
:: Ultimate Guitar Archive :: 
http://www.ultimate-guitar.com 



Comments