Cold - Bleed Chords & Tabs

 

Bleed Chords & Tabs

Cold Chords & Tabs

Version: 2 Type: Tab 0 ratings
1 star 2 stars 3 stars 4 stars 5 stars
comments

Bleed Tab

   
Band: Cold 
Song : Bleed 
Tuning: D G C F A D 
tabed by ATS
[ Tab from: http://www.guitartabs.cc/tabs/c/cold/bleed_tab_ver_2.html ]
Verse 
D|----------------|----------------|----------------|-----------------| 
A|-------5------5-|-------3------3-|-------5------5-|-------3-------4-| 
F|----------7-----|----------5-----|----------4-----|-----3-------4---| 
C|---7--------7---|---5--------5---|---4--------4---|-----------------| 
G|-5---5----------|-3---3----------|-2---2----------|-1-------2-------| 
D|----------------|----------------|----------------|-----------------| 
     C minor        A#/minor             A    G#/minor   A 


Chorus 
D|--3-----1--5-- 
A|--3-----1--5-- 
F|--4-----3--6-- 
C|--3--2--3--7-- 
G|--3--2--1--7-- 
D|--1--0-----5--
Comments