Cold - Bleed Chords & Tabs

 

Bleed Chords & Tabs

Cold Chords & Tabs

Version: 1 Type: Tab 1 rating
1 star 2 stars 3 stars 4 stars 5 stars
comments

Bleed Tab

Song:  Bleed
Artist:   Cold              dropped-D tuning
Tabbed by:   Jeb

GUITAR 1
Intro/Verse
E:|---------------------|----------------------|
B:|-----------3---3-----|-----------1---1------|
G:|-----0---------------|-----0-------------0--|
D:|------------------1--|----------------------|
A:|--3-----3------------|--1-----1-------------|
D:|---------------------|----------------------|


E:|--------------------|--------------------|
B:|--------------------|--------------------|
G:|-----------5--5-----|-----------5--------|
D:|-----5-----------5--|-----5--------------|
A:|--0-----0-----------|--------------------|
D:|--------------------|--6-----6------6-8--|

[ Tab from: http://www.guitartabs.cc/tabs/c/cold/bleed_tab.html ]
GUITAR 2
Verse
E:|----------------|---------------|----------------|----------------|
B:|------1---1---1-|------1---1--1-|-----1---1---1--|----------------|
G:|--------0---0---|--------3--3---|-------0---0----|-----5---5---5--|
D:|----------------|---------------|----------------|-------5---5----|
A:|--3-------------|--1------------|--0-------------|----------------|
D:|----------------|---------------|----------------|--6-------------|


GUITAR 1
Chorus/Outro
E:|-----------------------|-----------------------|-----------------------|-----------------------|
B:|-----------------------|-----------------------|-----------------------|-----------------------|
G:|-------3-------3-------|-----------------------|-----------------------|-----------------------|
D:|-----1-------1------1--|-------8-------8-------|-------8-------8-------|-------8-------8-------|
A:|-----------------------|-----6-------6------6--|-----6-------6------6--|-----6-------6------6--|
D:|--1-------1-------1----|--0-------0------0-----|--6-------6------6-----|--5-------5------5-----|


final chord
E:|-----|
B:|--4--|
G:|--3--|
D:|--1--|
A:|--1--|
D:|--1--|


GUITAR 2 
Chorus----> same as GUITAR 1

This is the same key as the recorded version.  Feel free to play along with it to
check the accuracy or whatever you want.

any questions or comments e-mail:  mightie_mongoose@yahoo.com
Comments