Cold - Bleed Standard Tuning Chords & Tabs

 

Bleed Standard Tuning Chords & Tabs

Cold Chords & Tabs

Version: 1 Type: Tab 0 ratings
1 star 2 stars 3 stars 4 stars 5 stars
comments

Bleed Standard Tuning Tab

Whats up?  MY friend showed me the correct ay to play this song.
all these other files are too wierd, this is simple and sounds 
great.  Its a great song, enjoy it.  
     GO USAFA FALCONS!  support our troops!

Intro/Verse
E|-------------------------------------------------------------
A|-7--------------5---------------4---------------3---------5h7
D|---5---------------5---------------5---------------5---------
G|--------0---0----------0---0-----------0---0-----------0-----
B|------7---7-------------------------------------------0------
e|---------------------0---0------------0---0----------0-------
[ Tab from: http://www.guitartabs.cc/tabs/c/cold/bleed_standard_tuning_tab.html ]
Chorus/Bridge
E|-3--------------3--------------2--------------2--------------
A|-------------------------------------------------------------
D|---0--------------0---------------0---------------0----------
G|------0---0-----------0---0----------0--0------------0--0----
B|-----3---3--3--------3---3--3-------3--3-3----------3--3-3---
e|-------3---------------3--------------3---------------3------


E|-------------------------------------------------------------
A|-3--------------3--------------2--------------2--------------
D|---0--------------0---------------0---------------0----------
G|------0---0-----------0---0----------0--0------------0--0----
B|-----3---3--3--------3---3--3-------3--3-3----------3--3-3---
e|-------3---------------3--------------3---------------3------

Comments