Cokelat - Segitiga Chords & Tabs

 

Segitiga Chords & Tabs

Cokelat Chords & Tabs

Version: 1 Type: Tab 0 ratings
1 star 2 stars 3 stars 4 stars 5 stars
comments

Segitiga Tab

   
-----------------------------------------------------------------------------
			     Segitiga(solo guitar) - Cokelat
-----------------------------------------------------------------------------
Tabbed by: Gilang Jalu
Email	: Gilangjalu@plasa.com
Song title	: Segitiga(Solo Guitar)
Band	: Cokelat
Album	: Segitiga


Tuning:Standard Tuning
       E,A,D,G,B,E


e||-------------------------------------------------------------------------|
B||-------------------------------------------------------------------------|
G||-----------------7---8--7-----10--8----7-------7-8-7-8-7-8-7-------------|
D||-------6-----9-----------------------------------------------8-----------|
A||-------------------------------------------------------------------------|
E||-------------------------------------------------------------------------|

[ Tab from: http://www.guitartabs.cc/tabs/c/cokelat/segitiga_tab.html ]
e|--------------------------------------------------------------------------|
B|-----------------------------------------------------------------12-------|
G|--------------7---8--7-----10--8----7-------11-13-11-13-11-13--------11---|
D|----6-6---9---------------------------------------------------------------|
A|-9------------------------------------------------------------------------|
E|--------------------------------------------------------------------------|


e|-------------------------------9h10---12--10--9------9--10--9-------------|
B|---------7h9--10----12--12-----------------------12------------10---------|
G|--------------------------------------------------------------------------|
D|--------------------------------------------------------------------------|
A|--------------------------------------------------------------------------|
E|--------------------------------------------------------------------------|

e|--------------------12-----------------9--10--12--13---------9--12------||
B|---9---9h10---12-----------9--10--12------------------------------------||
G|------------------------------------------------------------------------||
D|------------------------------------------------------------------------||
A|------------------------------------------------------------------------||
E|------------------------------------------------------------------------||

| /  slide up
| \  slide down
| h  hammer-on
| p  pull-off
| ~  vibrato
| +  harmonic
| x  Mute note
============================================================================
Comments