Cohhed And The Cambria - The Light And The Glass Chords & Tabs

 

The Light And The Glass Chords & Tabs

Cohhed And The Cambria Chords & Tabs

Version: 1 Type: Tab 0 ratings
1 star 2 stars 3 stars 4 stars 5 stars
comments

The Light And The Glass Tab

   
The light & The Glass
By: Coheed & Cambria
Tabbed by: Conrad the Great 

Acoustic part

e|-2------2-----------------------------------------------------------------
B|---3------3---------------------------------------------------------------
G|-----2------2----------2-0-------------2-----2-----2-----2----------------
D|-0------0----------4-5-----4-0-------0-----0-----0-----0------------------
A|---------------4h5-------------0------------------------------------------
E|-----------------------------------3-----3-----3-----3--------------------

e------------------------------5---------------------5----------------------
B-------0------------------------3---------------------5--------------------
G-2-------2--------2-0-4---2-------0---------------------2------------------
D---0-------0--2h4-------4-----------------0-----0--------------------------
A-----2--------------------------------2-0---4-0----------------------------
E---------------------------------------------------------------------------

e-5-----5-----5-----|
B---5-----5-----5---|   
G-----2-----2-----2-| times 4
D-------------------|
A-------------------|
E-------------------|

 Distortion/electric
 
e|----------------|
B|----------------|
G|----------------|
D|-7------5-------| times 2
A|-7(x12)-5(x12)--|
E|-5------3-------|
   you left the light on....


e|--------------------|
B|--------------------|
G|-4------------------|
D|-4(x6)-7------5-----| times 4
A|-2-----7(x12)-5(x6)-|
E|-------5------3-----|
  


e|------------------------|
B|------------------------|
G|-4----------------------|
D|-4(x12)-7------5--------| Guitar #1
A|-2------7(x12)-5(x24)---|
E|--------5------3--------|
 |                        |                Times 2
e|------------------------|
B|------------------------|
G|------------------------| Guitar #2
D|-9------11------12------|
A|-9(x12)-12(x12)-12(x12)-|
E|-7------9-------10------|
 



  (Beat is 1 2 - 3 4)
e|-------------------|
B|-------------------|
G|-9-----7-----5-----|
D|-9(x4)-7(x4)-5(x8)-|  Guitar 1
A|-7-----5-----3-----|
E|-------------------|
 |                   |           Times 4
e|-------------------|
B|-------------------|
G|-------------------|  Guitar 2
D|-12----12----12----|
A|-9(x4)-8(x4)-9(x8)-|
E|-------------------|
  


e|---------------------------------|
B|---------------------------------|
G|--------5-------------5----------|
D|-7------5(x24)-7------5-let ring-|
A|-7(x24)-3------7(x24)-3----------|
E|-5-------------5-----------------|


[ Tab from: http://www.guitartabs.cc/tabs/c/cohhed_and_the_cambria/the_light_and_the_glass_tab.html ]
(isnt correct, but i'm too lazy to figure out the real thing)
e|-2-----2-------------------------------------------------------------------
B|---3-----3------------------------------------------------0----------------
G|-----2-----2---------2-0--------2-----2-----2-----2--2------2---2----------
D|-----------------4-5-----4----0-----0-----0-----0------0------0---0--------
A|-------------4h5-----------------------------------------2----------2------
E|----------------------------3-----3-----3-----3----------------------------
   Liar, Liar......
e--------------------------------|
B-0------------------------------|
G---2--------2-----2-----2-----2-|
D-----0----0-----0-----0-----0---|  Times 2
A--------------------------------|
E--------3-----3-----3-----3-----|


e|--------------------|
B|--------------------|
G|-4------------------|
D|-4(x6)-7------5-----| times 4
A|-2-----7(x12)-5(x6)-|
E|-------5------3-----|
  


e|------------------------|
B|------------------------|
G|-4----------------------|
D|-4(x12)-7------5--------| Guitar #1
A|-2------7(x12)-5(x24)---|
E|--------5------3--------|
 |                        |                Times 2
e|------------------------|
B|------------------------|
G|------------------------| Guitar #2
D|-9------11------12------|
A|-9(x12)-12(x12)-12(x12)-|
E|-7------9-------10------|
  


(Beat is 1 2 - 3 4)
e|-------------------|
B|-------------------|
G|-9-----7-----5-----|
D|-9(x4)-7(x4)-5(x8)-|  Guitar 1
A|-7-----5-----3-----|
E|-------------------|
 |                   |           Times 4
e|-------------------|
B|-------------------|
G|-------------------|  Guitar 2
D|-12----12----12----|
A|-9(x4)-8(x4)-9(x8)-|
E|-------------------|
  


e|-------------------------------------------------|
B|-------------------------------------------------|
G|-------------------------------------------------|
D|-4-4-----0------------0------------0----6-6--6-6-| times 1
A|-4-4-2-4---0------2-4---0------2-4---0--6-6--6-6-|
E|-2-2----------2-2----------2-2----------4-4--4-4-|



e|-------------------------------------------------|
B|-------------------------------------------------|
G|-------------------------------------------------|
D|-4-4-----0------------0------------0----6-6--6-6-| times 3 
A|-4-4-2-4---0------2-4---0------2-4---0--6-6--6-6-|
E|-2-2----------2-2----------2-2----------4-4--4-4-|
  


(guitar solo is not correct, again, too lazy)
e|---------------------------------------------------------|
B|---------------------------------------------------------|
G|---------------------------9-----------------------------|
D|-12-----------11-----------9(x8)-------2-----4-----5-----|  Guitar 1
A|-10(x8)-------9(x8)--------7-----------2(x3)-4(x3)-5(x2)-|
E|---------------------------------------0-----2-----3-----|
 |                                                         |      Times 1
e|---12--12-12----12--12-12----12--12-12-------------------|
B|-12--12-------12--12-------12--12------------------------|
G|---------------------------------------------------------|  Guitar 2
D|---------------------------------------2-2-2-4-4-4-5-5---|
A|---------------------------------------------------------|
E|---------------------------------------------------------|


e|------------------------------------------------------|
B|------------------------------------------------------|
G|------------------------------------------------------|
D|-12------2------10------2------10------2------10------|
A|-10(x32)-2(x32)-10(x32)-2(x32)-10(x32)-2(x32)-10(x32)-|
E|-8-------0------8-------0------8-------0------8-------|


e|-----------------------|
B|-----------------------|
G|--------7--------------|
D|-2------7(x16)-10------| Times 6
A|-2(x16)-5------10(x32)-|
E|-0-------------8-------|
  Pray for us all....

and thats it...... it pretty simple.... its way easier than it looks, any corrections, questions,
comments; evil_kinevil99@hotmail.com and if you do have any problem playing this....you dont deserve
Comments