Cohen Leonard - Thoughts Are Free Chords & Tabs

 

Thoughts Are Free Chords & Tabs

Cohen Leonard Chords & Tabs

Version: 1 Type: Tab 0 ratings
1 star 2 stars 3 stars 4 stars 5 stars
comments

Thoughts Are Free Tab

   
#----------------------------------PLEASE NOTE---------------------------------#
#This file is the author's own work and represents their interpretation of the #
#song. You may only use this file for private study, scholarship, or research. #
#------------------------------------------------------------------------------##
Die Gedanken sind Frei  (text and music: anonymous)


Dean Engelhard writes in his complete collection of cohen songs (ftp.uwp.edu
/pub/music/lyrics) that Cohen had performed this german folk song.
It was never released on CD (as much as I know).

The song was written between 1780 and 1800, at the time of the French
Revolution.

 Possible accompaniment  patterns:

           C                     C

    1  a  2  a  3  a     1  a  2  a  3  a
e:--------------------|--------0-----0-----|
B:--------1-----------|--------1-----1-----|
G:-----0-----0-----0--|-----0-----0-----0--|
D:--------------2-----|--------------------|
A:--3-----------------|--3-----------------|
E:--------------------|--------------------|
    p  i  m  i  p  i     p  i  a  i  a  i              C
                               m      m
                                             3  a      1     2     3  a

                                    ---------------||--------------0-----|
                                    ---------------||--1-----1--------1--|
                                    ---------0--0--||--------------------|
    The melody:                     ---------------||--------------------|
                                    ---------------||--------------------|
                                    ---------------||--------------------|
                                   

                    G7              C
[ Tab from: http://www.guitartabs.cc/tabs/c/cohen_leonard/thoughts_are_free_tab.html ]
    1    2    3     1    2    3     1    2    3      1     2    3  a
e:---------------|---------------|----------------|-------------0-----|
B:---------------|---------------|----------------|--1-----1-------1--|
G:--0---------0--|------------0--|------------0---|-------------------|
D:---------------|--3----0-------|--2-------------|-------------------|
A:---------------|---------------|-------3--------|-------------------|
E:---------------|---------------|----------------|-------------------|
  

                      G7                C                  G7

    1     2     3     1     2     3     1     2      3     1      2   3 a
e:-----------------|-----------------|------------------|------------------|
B:-----------------|-----------------|---------------1--|--0------3-----0--|
G:--0-----------0--|--------------0--|------------------|------------------|
D:-----------------|--3-----0--------|--2---------------|------------------|
A:-----------------|-----------------|--------3---------|------------------|
E:-----------------|-----------------|------------------|------------------|
   

    C                  G7               C

    1     2   3  a     1    2   3 a     1       2    3
e:--------0---------|----------------|----------0--------|
B:--1------------1--|--0----3-----0--|--1------------1---|
G:------------------|----------------|-------------------|
D:------------------|----------------|-------------------|
A:------------------|----------------|-------------------|
E:------------------|----------------|-------------------|
  

    F                    C                   G7

    1    2  a  3   a     1    2    3   a     1  a   2    3
e:--------------------|----------------0--|--0----------------|
B:----------0---1-----|------------1------|-----3---1----0----|
G:--2----2---------2--|--0----------------|-------------------|
D:--------------------|-------------------|-------------------|
A:--------------------|-------------------|-------------------|
E:--------------------|-------------------|-------------------|
    

    C
 
    1 2 Da capo
e:--------------||
B:--1----------*||
G:--------------||
D:-------------*||
A:--------------||
E:--------------||
   
Comments