Cohen Leonard - Take This Longing Chords & Tabs

 

Take This Longing Chords & Tabs

Cohen Leonard Chords & Tabs

Version: 1 Type: Tab 0 ratings
1 star 2 stars 3 stars 4 stars 5 stars
comments

Take This Longing Tab

   
#----------------------------------PLEASE NOTE---------------------------------#
#This file is the author's own work and represents their interpretation of the #
#song. You may only use this file for private study, scholarship, or research. #
#------------------------------------------------------------------------------##
From: cpage@pandora.resnet.upenn.edu (Carter Page)

[ Article crossposted from alt.music.leonard-cohen ]
[ Author was Adi Heindl t4010 ]

There are not many tabs out for Leonard Cohen songs, execpt
from his two albums Songs of L.C. and Songs from a room.  So
i'm interested in the way other people play his songs on the
guitar.  Perhaps You are also interested and we can put our
information together to work out some new tabs.  Here is a
first proposal of "Take This Longing".  The chords are from
his anthology songbook. Feel free to critize the lines and
tell what can be done better.  Is this group the right place
for such stuff or should i better stay at home?  Thank You
very much for reading these lines and for any answer.

Leonard Cohen: Take This Longing  6/8
               on New Skin for the old Ceremony and Greatest Hits/Best of 

   C
   1  +  2  +  3  +     4  +  5  +  6  +  ...
e:-------0-----0--------------0-----0----|-------0-----0-------------|
B:----1-----1-----1--------1-----1-----1-|----1-----1-----1-----1--1-|
G:-------0-----0--------------0-----0----|-------0-----0-------------|
D:---------------------------------------|---------------------------|
A:-3--------------------3----------------|-3-----------------3-------|
E:---------------------------------------|---------------------------|
   
    Bb                                    F
e:||------------------------------------|------------------------------------|
B:||-3-----------------------------3----|-1----------------------------------|
G:||-------3-----3-----------3-----3----|-------2-----2-----------2-----2----|
D:||----3-----3-----3-----3-----3-----3-|----3-----3-----3-----3-----3-----3-|
A:||-1-----------------1----------------|------------------------------------|
E:||------------------------------------|-1-----------------1----------------|


*****************************************************************************   
   
   Bb                                   F
e:------------------------------------|-------------------------------------|
B:-3-----------------------------3----|-1------------------------------1----|
G:-------3-----3-----------3-----3----|-------2-----2------------2----------|
D:----3-----3-----3-----3-----3-----3-|----3-----3-----3------3-----3-----3-|
A:-1-----------------1----------------|-------------------------------------|
E:------------------------------------|-1------------------1----------------|
  

*****************************************************************************  
   
  Dm                                    Gm
e:-------------------------1----1-----|------------------------------------|
B:-------3-----3--------3-----3-----3-|-------------------------3-----3----|
G:----2-----2-----2-------------------|-------3-----5--------3-----3-----3-|
D:-0-----------------0----------------|----5-----5-----5-------------------|
A:------------------------------------|------------------------------------|
E:------------------------------------|-3-----------------3----------------|
     

*****************************************************************************   
   
   Dm                                   C(1 2 3)   Dm(4 5 6)
e:----------1-----------------1-------|------------1------|
B:-------3-----3-----------3-----3----|-1----------3------|
G:----2-----------2-----2-----------2-|-0----------2------|
D:-0-----------------0----------------|-2----------0------|
A:------------------------------------|-3-----------------|
E:------------------------------------|-------------------|
   
[ Tab from: http://www.guitartabs.cc/tabs/c/cohen_leonard/take_this_longing_tab.html ]
*****************************************************************************   
   
   C
   1 2   3  +   4  5  6   Em/appreggio 
e:----------------------|-/0-------------------------------|
B:-1--------------------|-\0-------------------------------|
G:-0------------0-----0-|-/0-------------------------------|
D:-2-----1b(2)-----2----|-\2-------------------------------|
A:-3--------------------|-/2-------------------------------|
E:----------------------|-\0-------------------------------|
   

*****************************************************************************   
   
   Am                                   Em
e:------------------------------------|------------------------------------|
B:-1-----------------------------1----|-0-----------------------------0----|
G:-------2-----2-----------2----------|-------0-----0-----------0----------|
D:----2-----2-----2-----2-----2-----2-|----2-----2-----2-----2-----2-----2-|
A:-0-----------------0----------------|------------------------------------|
E:------------------------------------|-0-----------------0----------------|
   

*****************************************************************************   
   
   Am                                   F
e:------------------------------------|-----------------------------|
B:-1-----------------------------1----|-------1---1------1-----1----|
G:-------2-----2-----------2----------|-------2---2------2-----2----|
D:----2-----2-----2-----2-----2-----2-|-------3---3------3-----3----|
A:-0-----------------0----------------|-----------------------------|
E:------------------------------------|-1-----------1---------------|
  
*****************************************************************************   
   
   C                    F
e:--------------------|--------------------------------------------|
B:----1--1-------1--1-|----------1---1------------1------1---------|
G:----2--2-------2--2-|----------2---2------------2------2---------|
D:----0--0-------0--0-|----------3---3------------3------3---------|
A:-3----------3-------|--------------------------------------------|
E:--------------------|-1------------------1-----------------------

   
*****************************************************************************   
   
   C                       F
e:-----------------------|-----------------------------------|
B:----1--1---------1--1--|---------1--1------------1----1----|
G:----2--2---------2--2--|---------2--2------------2----2----|
D:----0--0---------0--0--|---------3--3------------3----3----|
A:-3------------3--------|-----------------------------------|
E:-----------------------|-1------------------1--------------|
 
                    
*****************************************************************************   
   

   C                  Em                         F
e:--------------------|----------------------------|------------------|
B:-1------------------|-0--------------------------|-1----------------|
G:-2---------0-----0--|----0--0-------0----0-------|----2--2-----2--2-|
D:-0--1b(2)-----2-----|----2--2-------2----2-------|----3--3-----3--3-|
A:-3------------------|----------------------------|------------------|
E:--------------------|-0--------0-----------------|-1--------1-------|
 

*****************************************************************************   

                         |1.2.3.
   F                      C                   C
e:----------------------|-------------------|-------------------||
B:----1--1------1---1---|----1--1-----1--1--|----1--1-----1--1--||
G:----2--2------2---2---|----2--2-----2--2--|----2--2-----------||
D:----3--3------3---3---|----0--0-----0--0--|----0--0-----------||
A:----------------------|-3--------3--------|-3--------3--------||
E:-1--------1-----------|-------------------|-------------------||
         

*****************************************************************************   
   
  |4.
   C                  C                         F
e:------------------|-------------------------|-------------------|
B:----1--1-----1--1-|----1--1-------1----1----|----1--1-----1--1--|
G:----2--2-----2--2-|----2--2-------2----2----|----2--2-----2--2--|
D:----0--0-----0--0-|----0--0-------0----0----|----3--3-----3--3--|
A:-3--------3-------|-3--------3--------------|-------------------|
E:------------------|-------------------------|-1--------1--------|
 
   
   F                      C
e:----------------------|-------||
B:----1--1-------1----1-|-1-----||
G:----2--2-------2----2-|-0-----||
D:----3--3-------3----3-|-2-----||
A:----------------------|-3-----||
E:-1--------1-----------|-------||
        


Has anybody out there tried to play "Death of a Ladies' Man"
or "Dance me to the end of Love"?. If yes, please post it!

with best wishes 

adi
Comments