Cohen Leonard - Suzanne Chords & Tabs

 

Suzanne Chords & Tabs

Cohen Leonard Chords & Tabs

Version: 1 Type: Tab 0 ratings
1 star 2 stars 3 stars 4 stars 5 stars
comments

Suzanne Tab

   
#-----------------------------PLEASE NOTE-------------------------------------#
#This      file is the author's own work and represents their interpretation  #
#of the song. You may only use this file for private study, scholarship, or   #
#research. Remember to view this file in Courier, or other monospaced font.   #
#See http://www.olga.net/faq/ for more information.                           #
#-----------------------------------------------------------------------------#

Subject: c/cohen_leonard/suzanne.tab
Date: Thu, 8 Jun 1995 13:14:43 +0200 (MET DST)


                           Suzanne ( Leonard Cohen )

                 ( From the Songs of Leonard Cohen album, 1968 )




Transcribed and tabbed by : Jean-Marc Orliaguet
( jmo@fy.chalmers.se, http://fy.chalmers.se/~jmo )


Notes : Capo on the 9th fret ( on the 3rd fret in the "COHEN LIVE!" album )

        The tab should be played with the thumb and index fingers ONLY,
        in the simplest folk style : t - i - t - i ..., 
        and to give more rythm, with an up-and-down "strumming". 
        
        The stressed notes are marked with a > sign.


 Intro :

                                                                  ( 3 times )
6/4 G >                                   >           >           >
e-|------------------------------------|------------------------------------||
B-|------------------------------------|------------------------------------||
G-|---------0--------------------------|------------------------------------||
D-|---0-----------------0-----------0--|--------0-----------0-----------0---||
A-|---------------2--------------------|--2-----------3-----------2---------||
E-|---------------------------3--------|------------------------------------||
      t     i     t     i     t     i     t     i     t     i     t     i   ...


 4/4 >     >           > 
e-|--------------------------|
B-|--------------------------|
G-|-----0--------------------|
D-|--0--------0-----0-----0--|
A-|--------2-----------2-----|
E-|--------------3-----------|
     
                      Su -

 Verses :

  G        >           >        >     >           >       
e-|--------------------------|--------------------------|
B-|--------------------------|--------------------------|
G-|-----0--------------------|--------------------------|
D-|--0--------0-----0-----0--|-----0-----0-----0-----0--|
A-|--------2-----------2-----|--3-----2-----------2-----|
E-|--------------3-----------|--------------3-----------|

    zanne ...


     >     >           >        >     >           > 
e-|--------------------------|--------------------------|
B-|--------------------------|--------------------------|
G-|-----0--------------------|--------------------------|
D-|--0--------0-----0-----0--|-----0-----0-----0-----0--|
A-|--------2-----------2-----|--3-----2-----------3-----|
E-|--------------3-----------|--------------3-----------|

  


  Am >                 >        >     >       
e-|--------------------------|--------------------------|
B-|--------------------------|--------------------------|
G-|-----2--------------------|-----2-----------------2--|
D-|--2--------2-----2-----2--|--0--------2-----2--------|
A-|--------0-----------3-----|--------3-----------0-----|
E-|--------------0-----------|--------------0-----------|
 
  


     >                 >        >     >
e-|--------------------------|--------------------------|
B-|--------------------------|--------------------------|
G-|-----2--------------------|-----2-----------------0--|
D-|--2--------2-----2-----2--|--0--------2-----2--------|
A-|--------0-----------3-----|--------3-----------3-----|
E-|--------------0-----------|--------------3-----------|

  


  G  >     >           >        >     >           >
e-|--------------------------|--------------------------|
B-|--------------------------|--------------------------|
G-|-----0--------------------|--------------------------|
D-|--0--------0-----0-----0--|-----0-----0-----0-----0--|
A-|--------2-----------2-----|--3-----2-----------3-----|
E-|--------------3-----------|--------------3-----------|

    


 Am  >                 >        >     >
e-|--------------------------|--------------------------|
B-|--------------------------|--------------------------|
G-|-----2-----------------2--|-----2-----------------0--|
D-|--2--------2-----2--------|--0--------2-----2--------|
A-|--------0-----------3-----|--------3-----------3-----|
E-|--------------0-----------|--------------3-----------|

  


  Bm >                 >        >     >           >
e-|--------------------------|--------------------------|
B-|--------------------------|--------------------------|
G-|-----4-----------4-----4--|-----4-----4-----4-----4--|
D-|--4--------4--------0-----|--2-----0-----------4-----|
A-|--------2-----------------|--------------2-----------|
E-|--------------2-----------|--------------------------|

 


  C  >                 >        >     >     >     >
e-|--------------------------|--------------------------|
B-|-----1--------------------|--------------------------|
G-|--0--------0-----0-----0--|-----0-----0-----0-----0--|
D-|--------2-----------2-----|--3-----2-----0-----------|
A-|--------------3-----------|--------------------3-----|
E-|--------------------------|--------------------------|




  G  >     >           >        >     >           >
e-|--------------------------|--------------------------|
B-|--------------------------|--------------------------|
G-|-----0--------------------|--------------------------|
D-|--0--------0-----0-----0--|-----0-----0-----0-----0--|
A-|--------2-----------2-----|--3-----2-----------3-----|
E-|--------------3-----------|--------------3-----------|
 
 


 Am  >                 >        >     >
e-|--------------------------|--------------------------|
B-|--------------------------|--------------------------|
G-|-----2-----------------2--|-----2-----------------0--|
D-|--2--------2-----2--------|--0--------2-----2--------|
A-|--------0-----------3-----|--------3-----------3-----|
E-|--------------0-----------|--------------3-----------|

    


  G  >     >           >        >     >           >
e-|--------------------------|--------------------------|
B-|--------------------------|--------------------------|
G-|-----0--------------------|--------------------------|
D-|--0--------0-----0-----0--|-----0-----0-----0-----0--|
A-|--------2-----------2-----|--3-----2-----------3-----|
E-|--------------3-----------|--------------3-----------|



  Am >                 >        >     >
e-|--------------------------|--------------------------|
B-|--------------------------|--------------------------|
G-|-----2-----------------2--|-----2-----------------0--|
D-|--2--------2-----2--------|--0--------2-----2--------|
A-|--------0-----------3-----|--------3-----------3-----|
E-|--------------0-----------|--------------3-----------|




  G  >     >           >        >     >           >
e-|--------------------------|--------------------------|
B-|--------------------------|--------------------------|
G-|-----0--------------------|--------------------------|
D-|--0--------0-----0-----0--|-----0-----0-----0-----0--|
A-|--------2-----------2-----|--3-----2-----------3-----|
E-|--------------3-----------|--------------3-----------|

     

 
6/4               >           >          >          >           >            
e-||----------------------------------|----------------------------------|
B-||----------------------------------|----------------------------------|
G-||----------------------------------|----------------------------------|
D-||--------0-----------0---------0---|-------0----------0-----------0---|
A-||--------------2-----------3-------|--2----------------------3--------|
E-||--3-------------------------------|-------------3--------------------|

                                                    and        you

Chorus :

  Bm >                 >        >     >           >
e-|--------------------------|--------------------------|
B-|--------------------------|--------------------------|
G-|-----4-----------4-----4--|-----4-----4-----4-----4--|
D-|--4--------4--------0-----|--2-----0-----------4-----|
A-|--------2-----------------|--------------2-----------|
E-|--------------2-----------|--------------------------|
 
   want ...


  C  >                 >        >     >     >     >
e-|--------------------------|--------------------------|
B-|-----1--------------------|--------------------------|
G-|--0--------0-----0-----0--|-----0-----0-----0-----0--|
D-|--------2-----------2-----|--3-----2-----0-----------|
A-|--------------3-----------|--------------------3-----|
E-|--------------------------|--------------------------|
   
 


  G  >     >           >        >     >           >
e-|--------------------------|--------------------------|
B-|--------------------------|--------------------------|
G-|-----0--------------------|--------------------------|
D-|--0--------0-----0-----0--|-----0-----0-----0-----0--|
A-|--------2-----------2-----|--3-----2-----------3-----|
E-|--------------3-----------|--------------3-----------|

  


 Am  >                 >        >     >
e-|--------------------------|--------------------------|
B-|--------------------------|--------------------------|
G-|-----2-----------------2--|-----2-----------------0--|
D-|--2--------2-----2--------|--0--------2-----2--------|
A-|--------0-----------3-----|--------3-----------3-----|
E-|--------------0-----------|--------------3-----------|




                                                             ( repeat twice )
6/4 G >                                   >           >           >
e-||-----------------------------------|-----------------------------------||
B-||-----------------------------------|-----------------------------------||
G-||--------0--------------------------|-----------------------------------||
D-||--0-----------------0-----------0--|--------0-----------0-----------0--||
A-||--------------2--------------------|--2-----------3-----------2--------||
E-||--------------------------3--------|-----------------------------------||

 

[ Tab from: http://www.guitartabs.cc/tabs/c/cohen_leonard/suzanne_tab.html ]
 4/4 >                 >
e-|--------------------------|
B-|--------------------------|
G-|-----0-----------------0--|
D-|--0--------0-----0--------|
A-|--------2-----------3-----|
E-|--------------3-----------|

               



              jmo@fy.chalmers.se      http://fy.chalmers.se/~jmo


Date: Fri, 27 Jun 1997 21:53:14 -0400 (EDT)
From: Christopher J Rizzo 
Subject: TAB: Suzanne by Leonard Cohen


                                 =========
                                  Suzanne
                                 =========  
                              By Leonard Cohen
                    
                    Transcribed by: Christopher J. Rizzo                      
                       cjr68797@pegasus.cc.ucf.edu               
                                 06/14/97                 
                     
                      From Leonard Cohen's first album 
                         "Songs of Leonard Cohen" 
                      Also on "Leonard Cohen: Best Of"  

    INTRO                       
E |--------------|--------------|---------------||--------------||
B |--0-----------|--------------|---------------||--0-----------||
G |--------1-----|--------1-----|--2-----1-----o||--------1-----||
D |-----2-----2--|-----2-----2--|-----2-----2--o||-----2-----2--||
A |--------------|--------------|---------------||--------------||
E |--0-----------|--0-----------|---------------||--0-----------||
                                (repeat 3 times)                    
         
    VERSE 1:

           Suzanne ...
E |--------------|--------------|--------------|--------------|
B |--------------|--0-----------|--------------|--------------|
G |--------1-----|--------1-----|--------1-----|--2-----1-----|
D |-----2-----2--|-----2-----2--|-----2-----2--|-----2-----2--|
A |--------------|--------------|--------------|--------------|
E |--0-----------|--0-----------|--0-----------|--------------|
   

    
E |--------------|--------------|--------------|--------------|
B |--------------|--0-----------|--------------|--------------|
G |--------1-----|--------1-----|--------1-----|--2-----1-----|
D |-----2-----2--|-----2-----2--|-----2-----2--|-----2-----2--|
A |--------------|--------------|--------------|--------------|
E |--0-----------|--0-----------|--0-----------|--------------|


     
E |--------------|--------------|--------------|--------------|
B |--------------|--2-----------|--------------|--------------|
G |--------2-----|--------2-----|--------2-----|--4-----2-----|
D |-----2-----2--|-----4-----4--|-----4-----4--|-----4-----4--|
A |--------------|--------------|--------------|--------------|
E |--0-----------|--2-----------|--2-----------|--------------|
  

    
E |--------------|--------------|--------------|--------------|
B |--------------|--2-----------|--------------|--------------|
G |--------2-----|--------2-----|--------2-----|--4-----2-----|
D |-----4-----4--|-----4-----4--|-----4-----4--|-----4-----4--|
A |--------------|--------------|--------------|--------------|
E |--2-----------|--2-----------|--2-----------|--------------|


        
E |--------------|--------------|--------------|--------------|
B |--------------|--0-----------|--------------|--------------|
G |--------2-----|--------1-----|--------1-----|--2-----1-----|
D |-----4-----4--|-----2-----2--|-----2-----2--|-----2-----2--|
A |--------------|--------------|--------------|--------------|
E |--2-----------|--0-----------|--0-----------|--------------|
   

     
E |--------------|--------------|--------------|--------------|
B |--------------|--0-----------|--------------|--------------|
G |--------1-----|--------1-----|--------1-----|--2-----1-----|
D |-----2-----2--|-----2-----2--|-----2-----2--|-----2-----2--|
A |--------------|--------------|--------------|--------------|
E |--0-----------|--0-----------|--0-----------|--------------|


     
E |--------------|--------------|--------------|--------------|
B |--------------|--4-----------|--------------|--------------|
G |--------1-----|--------4-----|--------4-----|--6-----4-----|
D |-----2-----2--|-----6-----6--|-----6-----6--|-----6-----6--|
A |--------------|--------------|--------------|--------------|
E |--0-----------|--4-----------|--4-----------|--------------|
   

    
E |--------------|--------------|--------------|--------------|
B |--------------|--5-----------|--------5-----|--7-----5-----|
G |--------4-----|--------6-----|--------------|--------------|
D |-----6-----6--|-----7-----7--|-----7-----7--|-----7-----7--|
A |--------------|--------------|--------------|--------------|
E |--4-----------|--5-----------|--5-----------|--------------|


     
E |--------------|--------------|--------------|--------------|
B |--4-----2-----|--0-----------|--------------|--------------|
G |--------------|--------1-----|--------1-----|--2-----1-----|
D |--------------|-----2-----2--|-----2-----2--|-----2-----2--|
A |-----0-----0--|--------------|--------------|--------------|
E |--------------|--0-----------|--0-----------|--------------|


  
E |--------------|--------------|--------------|--------------|
B |--------1-----|--2-----------|--------------|--------------|
G |--------------|--------2-----|--------2-----|--4-----2-----|
D |-----2-----2--|-----4-----4--|-----4-----4--|-----4-----4--|
A |--------------|--------------|--------------|--------------|
E |--0-----------|--2-----------|--2-----------|--------------|


   
E |--------------|--------------|--------------|--------------|
B |--------------|--0-----------|--------------|--------------|
G |--------2-----|--------1-----|--------1-----|--2-----1-----|
D |-----4-----4--|-----2-----2--|-----2-----2--|-----2-----2--|
A |--------------|--------------|--------------|--------------|
E |--2-----------|--0-----------|--0-----------|--------------|

 
          
E |--------------|--------------|--------------|--------------|
B |--------------|--2-----------|--------------|--------------|
G |--------2-----|--------2-----|--------2-----|--4-----2-----|
D |-----2-----2--|-----4-----4--|-----4-----4--|-----4-----4--|
A |--------------|--------------|--------------|--------------|
E |--0-----------|--2-----------|--2-----------|--------------|


      
E |--------------|--------------|--------------|--------------|
B |--------------|--0-----------|--------------|--------------|
G |--------2-----|--------1-----|--------1-----|--2-----1-----|
D |-----4-----4--|-----2-----2--|-----2-----2--|-----2-----2--|
A |--------------|--------------|--------------|--------------|
E |--2-----------|--0-----------|--0-----------|--------------|
   
   
    CHORUS 1:

                                                       And you
E |--------------|--------------|--------------|--------------|
B |--------------|--------------|--------------|--0-----------|
G |--------1-----|--------1-----|--2-----1-----|--------1-----|
D |-----2-----2--|-----2-----2--|-----2-----2--|-----2-----2--|
A |--------------|--------------|--------------|--------------|
E |--0-----------|--0-----------|--------------|--0-----------|


     Want  to ...     
E |--------------|--------------|--------------|--------------|
B |--4-----------|--------------|--------------|--------------|
G |--------4-----|--------4-----|--6-----4-----|--------4-----|
D |-----6-----4--|-----6-----6--|-----6-----6--|-----6-----6--|
A |--------------|--------------|--------------|--------------|
E |--4-----------|--4-----------|--------------|--4-----------|
  

     
E |--------------|--------------|--------------|--------------|
B |--5-----------|--------5-----|--7-----5-----|--4-----2-----|
G |--------6-----|--------------|--------------|--------------|
D |-----7-----7--|-----7-----7--|-----7-----7--|--------------|
A |--------------|--------------|--------------|-----0-----0--|
E |--5-----------|--5-----------|--------------|--------------|


     
E |--------------|--------------|--------------|--------------|
B |--0-----------|--------------|--------------|--------------|
G |--------1-----|--------1-----|--2-----1-----|--------1-----|
D |-----2-----2--|-----2-----2--|-----2-----2--|-----2-----2--|
A |--------------|--------------|--------------|--------------|
E |--0-----------|--0-----------|--------------|--0-----------|


    
E |--------------|--------------|--------------|--------------|
B |--2-----------|--------------|--------------|--------------|
G |--------2-----|--------2-----|--4-----2-----|--------2-----|
D |-----4-----4--|-----4-----4--|-----4-----4--|-----4-----4--|
A |--------------|--------------|--------------|--------------|
E |--2-----------|--2-----------|--------------|--2-----------|



E |--------------|--------------|--------------|--------------|
B |--0-----------|--------------|--------------|--0-----------|
G |--------1-----|--------1-----|--2-----1-----|--------1-----|
D |-----2-----2--|-----2-----2--|-----2-----2--|-----2-----2--|
A |--------------|--------------|--------------|--------------|
E |--0-----------|--0-----------|--------------|--0-----------|


                                 Play 1st &        Play 3rd 
                                 2nd time          time
E |--------------|--------------|---------------||------------||
B |--------------|--------------|--0------------||--0---------||
G |--------1-----|--2-----1-----|--------1-----o||------------||
D |-----2-----2--|-----2-----2--|-----2-----2--o||------------||
A |--------------|--------------|---------------||------------||
E |--0-----------|--------------|--0------------||--0---------||
                                (repeat 3 times)




(Lyrics modified from an existing chord chart posted by
 Steve Putz , 7 September 1992)

 ======================================================================
  Notation:                                                        
   x = Mute by gently placing left hand on string(s)
       and striking with pick.
  pm = Palm mute.
   ~ = Vibrato or slight string bend.
   / = Slide up.
   \ = Slide Down.
   b = Bend
   r = Release Bend
   = Harmonic
   s = Strum the notes beneath the "s".
   h = Hammer on.
   p = Pull off.
 ======================================================================
  Christopher J. Rizzo           |  cjr68797@pegasus.cc.ucf.edu
  University of Central Florida  |  http://pegasus.cc.ucf.edu/~cjr68797
 ======================================================================
Comments