Cohen Leonard - Minute Prologue Chords & Tabs

 

Minute Prologue Chords & Tabs

Cohen Leonard Chords & Tabs

Version: 1 Type: Tab 0 ratings
1 star 2 stars 3 stars 4 stars 5 stars
comments

Minute Prologue Tab

   
#----------------------------------PLEASE NOTE---------------------------------#
#This file is the author's own work and represents their interpretation of the #
#song. You may only use this file for private study, scholarship, or research. #
#------------------------------------------------------------------------------##
Minute PROLOGUE: Leonard Cohen on LIVE SONGS
copyright Leonard Cohen, Stranger Music Inc.

Corrections and critics welcoms

  Adi.Heindl@chemie.uni-regensburg.de

                                            
            I
e:--------------------|--------------------|--------------------|
B:--------0-----0-----|--------0-----0-----|--------0-----0-----|
G:--------0-----0-----|--------0-----0-----|--------0-----0-----|
D:-----0-----0-----0--|-----0-----0-----0--|-----0-----0-----0--|
A:--------------------|--------------------|--------------------|
E:--3-----------------|--3-----------------|--3-----------------|
    G                    

            
e:--------------------|--------------------|--------------------|
B:--------3-----3-----|--------3-----3-----|--------0-----0-----|
G:--------4-----4-----|--------4-----4-----|--------0-----0-----|
D:-----4-----4-----4--|-----4-----4-----4--|-----0-----0-----0--|
A:--2-----------------|--2-----------------|--------------------|
E:--------------------|--------------------|--3-----------------|
    Bm                                        G


e:--------------------|--------------------|--------------------|
B:--------0-----0-----|--------3-----3-----|--------3-----3-----|
G:--------0-----0-----|--------4-----4-----|--------4-----4-----|
D:-----0-----0-----0--|-----4-----4-----4--|-----4-----4--------|
A:--------------------|--2-----------------|--2--------------2--|
E:--3-----------------|--------------------|--------------------|
                         Bm

 
e:--------------------|--------------------|--------------------|
B:--------1-----1-----|--------1-----1-----|--------3------3-----|
G:--------2-----2-----|--------2-----2-----|--------5------5-----|
D:-----2-----2-----2--|-----2-----2-----2--|-----4-----4-----4--|
A:--0-----------------|--0-----------------|--5-----------------|
E:--------------------|--------------------|--------------------|
   


                
e:--------------------|--------------------|--------------------|
B:--------3-----3-----|--------0-----0-----|--------0-----0-----|
G:--------5-----5-----|--------0-----0-----|--------0-----0-----|
D:-----4-----4-----4--|-----0-----0-----0--|-----0-----0-----0--|
A:--5-----------------|--------------------|--------------------|
E:--------------------|--3-----------------|--3-----------------|
                         G

[ Tab from: http://www.guitartabs.cc/tabs/c/cohen_leonard/minute_prologue_tab.html ]
e:--------------------|--------------------|--------------------|
B:--------0-----0-----|--------0-----0-----|--------3-----3-----|
G:--------0-----0-----|--------0-----0-----|--------4-----4-----|
D:-----0-----0-----0--|-----0-----0--------|-----4-----4-----4--|
A:--------------------|-----------------3--|--2-----------------|
E:--3-----------------|--3-----------------|--------------------|
                                              Bm



e:--------------------|--------0-----0-----|--------0-----0-----|
B:--------3-----3-----|--------0-----0-----|--------0-----0-----|
G:--------4-----4-----|-----0-----0-----0--|-----0-----0-----0--|
D:-----4-----4-----4--|--2-----------------|--2-----------------|
A:--2-----------------|--------------------|--------------------|
E:--------------------|--------------------|--------------------|
                        Em


  
e:--------------------|--------------------|--------0-----0-----|
B:--------3-----3-----|--------3-----3-----|--------0-----0-----|
G:--------4-----4-----|--------4-----4-----|-----0-----0-----0--|
D:-----4-----4-----4--|-----4-----4-----4--|--2-----------------|
A:--2-----------------|--2-----------------|--------------------|
E:--------------------|--------------------|--------------------|
    Bm                                        Em


         
e:--------0-----0-----|--------------------|--------------------|
B:--------0-----0-----|--------3-----3-----|--------3-----3-----|
G:-----0-----0-----0--|--------4-----4-----|--------4-----4-----|
D:--2-----------------|-----4-----4-----4--|-----4-----4-----4--|
A:--------------------|--2-----------------|--2-----------------|
E:--------------------|--------------------|--------------------|
                        Bm


  
e:--------------------|--------0-----0-----|--------------------|
B:--1-----0-----0-----|--------0-----0-----|--------0-----0-----|
G:--------0-----0-----|-----0-----0-----0--|--------0-----0-----|
D:-----2-----2-----2--|--------------------|-----0-----0-----0--|
A:--3-----------------|--3-----------------|--------------------|
E:--------------------|--------------------|--3-----------------|
    C     Cmaj7                               G


e:--------------------|--------------------|--------------------|
B:--------0-----0-----|--------3-----3-----|--------3-----3-----|
G:--------0-----0-----|--------5-----5-----|--------5-----5-----|
D:-----0-----0-----0--|-----4-----4-----4--|-----4-----4-----4--|
A:--------------------|--5-----------------|--5-----------------|
E:--3-----------------|--------------------|--------------------|
                         D7

e:--------------------|--------------------|--3-------||
B:--------0-----0-----|--------0-----0-----|--0-------||
G:--------0-----0-----|--------0-----0-----|--0-------||
D:-----0-----0-----0--|-----0-----0-----0--|----------||
A:--------------------|--------------------|----------||
E:--3-----------------|--3-----------------|--3-------||
    G
Comments