Cohen Leonard - Famous Blue Raincoat Chords & Tabs

 

Famous Blue Raincoat Chords & Tabs

Cohen Leonard Chords & Tabs

Version: 1 Type: Tab 0 ratings
1 star 2 stars 3 stars 4 stars 5 stars
comments

Famous Blue Raincoat Tab

   
#----------------------------------PLEASE NOTE---------------------------------#
#This file is the author's own work and represents their interpretation of the #
#song. You may only use this file for private study, scholarship, or research. #
#------------------------------------------------------------------------------##
Date: Sun, 6 Nov 1994 19:32:05 +0000 (GMT)
From: Simon Holliday 
X-Mailer: ELM [version 2.4 PL21]

                    Leonard Cohen : Famous Blue Raincoat
              -------------------------------------------------
               Tabbed by Simon Holliday (pl2023@bristol.ac.uk)


Tune your low E string down to a D.

 Section 1:

      Am7           Am7           F             F
   E|-------------|-------------|-------------|-------------|
   B|-----1---1---|-----1---1---|-------------|-------------|
   G|-----0---0---|-----0---0---|-----2---2---|-----2---2---|
   D|---2---2---2-|---2---2---2-|-----3---3---|-----3---3---|
   A|-0-----------|-0-----------|---3---3---3-|---3---3---3-|
   D|-------------|-------------|-3-----------|-3-----------|
      1 + 2 + 3 +   1 + 2 + 3 +   1 + 2 + 3 +   1 + 2 + 3 +

      Dm            Dm            Em7           Em7
   E|-------------|-------------|-------------|-------------|
   B|-------------|-------------|-----0---0---|-----0---0---|
   G|-----2---2---|-----2---3---|-----0---0---|-----0---0---|
   D|-----3---3---|-----3---3---|---0---0---0-|---0---0---0-|
   A|---0---0---0-|---0---0---0-|-------------|-------------|
   D|-0-----------|-0-----------|-2-----------|-2-----------|
      1 + 2 + 3 +   1 + 2 + 3 +   1 + 2 + 3 +   1 + 2 + 3 +
  


 Section 2:

      Am7           Am7           Bm7           Bm7
   E|-------------|-------------|-------------|-------------|
   B|-----1---1---|-----1---1---|-----3---2---|-----3---2---|
   G|-----0---0---|-----0---0---|-----2---3---|-----2---3---| repeat x 2
   D|---2---2---2-|---2---2---2-|---0---0---0-|---0---0---0-|
   A|-0-----------|-0-----------|-2-----------|-2-----------|
   D|-------------|-------------|-------------|-------------|
      1 + 2 + 3 +   1 + 2 + 3 +   1 + 2 + 3 +   1 + 2 + 3 +
  
    

      Am7           Am7           G             G
   E|-------------|-------------|-------------|-------------|
   B|-----1---1---|-----1---1---|-----0---0---|-----0---0---|
   G|-----0---0---|-----0---0---|-----0---0---|-----0---0---| repeat x 2
   D|---2---2---2-|---2---2---2-|---0---0---0-|---0---0---0-|
   A|-0-----------|-0-----------|-------------|-------------|
   D|-------------|-------------|-5-----------|-5-----------|
      1 + 2 + 3 +   1 + 2 + 3 +   1 + 2 + 3 +   1 + 2 + 3 +
 
  


 Section 3:

       C6            C6            C6            C6
    E|-----0---0---|-----0---0---|-----0---0---|-----0---0---|
    B|-------------|-------------|-------------|-------------|
    G|-----2---2---|-----2---2---|-----2---2---|-----2---2---|
    D|---5---5---5-|---5---5---5-|---5---5---5-|---5---5---5-|
    A|-3-----------|-3-----------|-3-----------|-3-----------|
    D|-------------|-------------|-------------|-------------|
       1 + 2 + 3 +   1 + 2 + 3 +   1 + 2 + 3 +   1 + 2 + 3 +
  

       G             G             G             G
    E|-------------|-------------|-------------|-------------|
    B|-------------|-------------|-------------|-------------|
    G|-----2---4---|-----2---4---|-----2---4---|-----2---4---|
    D|-----0---0---|-----0---0---|-----0---0---|-----0---0---|
    A|---5---5---5-|---5---5---5-|---5---5---5-|---5---5---5-|
    D|-5-----------|-5-----------|-5-----------|-5-----------|
       1 + 2 + 3 +   1 + 2 + 3 +   1 + 2 + 3 +   1 + 2 + 3 +
      


       Am7           Am7           Am7           Am7
    E|-------------|-------------|-------------|-------------|
    B|-----1---1---|-----1---1---|-----1---1---|-----1---1---|
    G|-----0---0---|-----0---0---|-----0---0---|-----0---0---|
    D|---2---2---2-|---2---2---2-|---2---2---2-|---2---2---2-|
    A|-0-----------|-0-----------|-0-----------|-0-----------|
    D|-------------|-------------|-------------|-------------|
       1 + 2 + 3 +   1 + 2 + 3 +   1 + 2 + 3 +   1 + 2 + 3 +
      


       Bm7           Bm7           G             G
    E|-------------|-------------|-------------|-------------|
    B|-----3---3---|-----3---3---|-----3---3---|-----3---3---|
    G|-----2---2---|-----2---2---|-----0---0---|-----0---0---|
    D|---0---0---0-|---0---0---0-|---0---0---0-|---0---0---0-|
    A|-2-----------|-2-----------|-------------|-2-----------|
    D|-------------|-------------|-5-----------|-------------|
       1 + 2 + 3 +   1 + 2 + 3 +   1 + 2 + 3 +   1 + 2 + 3 +
    


       F             F             Em7           Em7
    E|-------------|-------------|-------------|-------------|
    B|-------------|-------------|-----0---0---|-----0---0---|
    G|-----2---2---|-----2---2---|-----0---0---|-----0---0---|
    D|-----3---3---|-----3---3---|---0---0---0-|---0---0---0-|
    A|---3---3---3-|---3---3---3-|-------------|-------------|
    D|-3-----------|-3-----------|-2-----------|-2-----------|
       1 + 2 + 3 +   1 + 2 + 3 +   1 + 2 + 3 +   1 + 2 + 3 +
        


     -------------------------------------------------------------------




        
                      Famous Blue Raincoat ( Leonard Cohen )

                    from the Songs of Love and Hate album 1970 



Transcribed by : Jean-Marc Orliaguet 
( jmo@fy.chalmers.se, http://fy.chalmers.se/~jmo )



Intro :
[ Tab from: http://www.guitartabs.cc/tabs/c/cohen_leonard/famous_blue_raincoat_tab.html ]
     Am7                                    F
e-|--------------------------------------|------------------------------------
B-|--------1-----1-----1-----1-----1-----|-----1-----1-----1-----1-----1-----1
G-|--------0-----0-----0-----0-----0-----|-----2-----2-----2-----2-----2-----2
D-|-----2-----2-----2-----2-----2-----2--|--------3-----3-----3-----3-----3---
A-|--0-----------------------------------|------------------------------------
E-|--------------------------------------|--1---------------------------------


     Dm7                                    Em
e-|-------(1)---(1)---(1)---(1)---(1)----|------------------------------------
B-|--------1-----1-----1-----1-----1-----|-----0-----0-----0-----0-----0-----0
G-|-----2--2-----2-----2-----2-----2-----|-----0-----0-----0-----0-----0-----0
D-|--0--------0-----0-----0-----0-----0--|--------2-----2-----2-----2-----2---
A-|--------------------------------------|------------------------------------
E-|--------------------------------------|--0---------------------------------


Verses :

     Am7                                    F
e-|--------------------------------------|------------------------------------
B-|--------1-----1-----------1-----1-----|-----1-----1-----1-----1-----1-----1
G-|--------0-----0-----------0-----0-----|-----2-----2-----2-----2-----2-----2
D-|-----2-----2-----2-----2-----2-----2--|--------3-----3-----------3-----3---
A-|--0-----------------0-----------------|------------------------------------
E-|--------------------------------------|--1-----------------1---------------

1. It's four in  the  morning ,,,


     Dm7                                    Em
e-|-------(1)---(1)---(1)---(1)---(1)----|------------------------------------
B-|--------1-----1-----1-----1-----1-----|-----0-----0-----0-----0-----0-----0
G-|-----2--2-----2-----2-----2-----2-----|-----0-----0-----0-----0-----0-----0
D-|--0--------0-----0-----0-----0-----0--|--------2-----2-----------2-----2---
A-|--------------------------------------|------------------------------------
E-|--------------------------------------|--0-----------------0---------------




Bridge :

     Am7                                    Bm7              ( repeat twice )
e-|--------------------------------------|------------------------------------
B-|--------1-----1-----------1-----1-----|--------3-----3-----------3-----3---
G-|--------0-----0-----------0-----0-----|--------2-----2-----------2-----2---
D-|-----2-----2-----2-----2-----2-----2--|-----4-----4-----4-----4-----4-----4
A-|--0-----------------0-----------------|--2-----------------2---------------
E-|--------------------------------------|------------------------------------

         


     Am7                                    G                ( repeat twice )
e-|--------------------------------------|------------------------------------
B-|--------1-----1-----------1-----1-----|--------0-----0-----------0-----0---
G-|--------0-----0-----------0-----0-----|--------0-----0-----------0-----0---
D-|-----2-----2-----2-----2-----2-----2--|-----0-----0-----0-----0-----0-----0
A-|--0-----------------0-----------------|------------------------------------
E-|--------------------------------------|--3-----------------3---------------



Chorus :

     C                                      
e-|--------0-----0-----------0-----0-----|--------0-----0-----------0-----0---
B-|--------1-----1-----------1-----1-----|--------1-----1-----------1-----1---
G-|-----0-----0-----0-----0-----0-----0--|-----0-----0-----0-----0-----0-----0
D-|--------2-----2-----------2-----2-----|--------2-----2-----------2-----2---
A-|--3-----------------3-----------------|--3-----------------3---------------
E-|--------------------------------------|------------------------------------

    Jane              came     ...


     G     
e-|--------------------------------------|------------------------------------
B-|--------0-----0-----------0-----0-----|--------0-----0-----------0-----0---
G-|--------0-----0-----------0-----0-----|--------0-----0-----------0-----0---
D-|-----0-----0-----0-----0-----0-----0--|-----0-----0-----0-----0-----0-----0
A-|--------0-----2-----------0-----2-----|--------0-----2-----------0-----2---
E-|--3-----------------3-----------------|--3-----------------3---------------

    


     Am7
e-|--------------------------------------|------------------------------------
B-|--------1-----1-----------1-----1-----|--------1-----1-----------1-----1---
G-|-----0-----0-----0-----0-----0-----0--|-----0-----0-----0-----0-----0-----0
D-|--------2-----2-----------2-----2-----|--------2-----2-----------2-----2---
A-|--0-----------------0-----------------|--0-----------------0---------------
E-|--------------------------------------|------------------------------------

   


     Bm7                                    G
e-|--------------------------------------|------------------------------------
B-|--------3-----3-----------3-----3-----|--------3-----3-----------3-----3---
G-|-----2-----2-----2-----2-----2-----2--|-----4-----4-----4-----4-----4-----4
D-|--------4-----4-----------4-----4-----|--------5-----5-----------5-----5---
A-|--2-----------------2-----------------|------------------------------------
E-|--------------------------------------|--3-----------------3---------------

                                         


     F                                      Em
e-|--------------------------------------|------------------------------------
B-|--------1-----1-----------1-----1-----|--------0-----0--------0-----0------
G-|-----2-----2-----2-----2-----2-----2--|-----0-----0-----0-----0-----0------
D-|--------3-----3-----------3-----3-----|--------2-----2-----------2-----2---
A-|--------------------------------------|------------------------------------
E-|--1-----------------1-----------------|--0-----------------0---------------

       



Chord voicings :

Am7   : x02010
F     : 133211
Dm7   : xx0211
Em    : 022000
Bm7   : x24232
G     : 320003
C     : 332010
G bar : 355433



Sincerely, L. Cohen 


 
               jmo@fy.chalmers.se        http://fy.chalmers.se/~jmo 
Comments