Cohen Leonard - Chelsea Hotel Chords & Tabs

 

Chelsea Hotel Chords & Tabs

Cohen Leonard Chords & Tabs

Version: 1 Type: Tab 0 ratings
1 star 2 stars 3 stars 4 stars 5 stars
comments

Chelsea Hotel Tab

   
#----------------------------------PLEASE NOTE---------------------------------#
#This file is the author's own work and represents their interpretation of the #
#song. You may only use this file for private study, scholarship, or research. #
#------------------------------------------------------------------------------##
From: Jean Marc Orliaguet 
Date: Wed, 14 Jun 1995 15:39:29 +0200 (MET DST)


                            Chelsea Hotel no 2 ( Leonard Cohen )

               From the New Skin for the Old Ceremony album ( 1974 )



Transcribed and tabbed by Jean-Marc Orliaguet 
( jmo@fy.chalmers.se, http://fy.chalmers.se/~jmo )




Notes :  Capo 5th fret

         The time signature is 3/4, so the bass note on the first
         beat of each bar should be played louder.
 

    
 3/4 C
e-|--------------0-----|--------------------|--------0-----------|
B-|--------------------|--------------------|--------------1-----|
G-|--------0-----------|--------------------|-----0-----0-----0--|
D-|--------------------|--------------------|--------2-----2-----|
A-|--3-----------------|--------------------|--3-----------------|
E-|--------------------|--------------------|--------------------|

                                     I    re - mem - ber  you


     G                    F                    C
e-|--------------------|--------------------|--------------------|
B-|--------3-----3-----|--------1-----1-----|--------1-----1-----|
G-|-----------4-----4--|-----------2-----2--|-----0-----0-----0--|
D-|--------5-----5-----|--------3-----3-----|--------2-----2-----|
A-|--------------------|--------------------|--3-----------------|
E-|--3-----------------|--1-----------------|--------------------|

   well ...


    C/E                   G                   Am
e-|--------------------|--------------------|--------0-----------|
B-|--------1-----1-----|--------3-----3-----|--------1-----0-h1--|
G-|-----0-----0-----0--|-----4-----4-----4--|--------------------|
D-|--2-----2-----2-----|--------5-----5-----|--------------------|
A-|--------------------|--------------------|--0-----------------|
E-|--------------------|--3-----------------|--------------------|

   


   Am/E                   C                    G
e-|--------0-----------|--------------------|--------------------|
B-|--------------1-----|--------1-----1-----|--------3-----3-----|
G-|--------------------|-----0-----0-----0--|-----4-----4-----4--|
D-|--2-----------------|--------2-----2-----|--------5-----5-----|
A-|--------------------|--3-----------------|--------------------|
E-|--------------------|--------------------|--3-----------------|

                


     F                    C                    F
e-|--------------------|--------------------|--------------------|
B-|--------1-----1-----|--------1-----1-----|--------1-----1-----|
G-|-----2-----2-----2--|-----0-----0-----0--|-----2-----2-----2--|
D-|--------3-----3-----|--------2-----2-----|--------3-----3-----|
A-|--------------------|--3-----------------|--------------------|
E-|--1-----------------|--------------------|--1-----------------|

  


                          G            
e-|--------------------|--------------------|--------------------|
B-|--------1-----1-----|--------3-----3-----|--------3-----3-----|
G-|-----2-----2-----2--|-----4-----4-----4--|-----4-----4-----4--|
D-|--3-----3-----3-----|--------5-----5-----|--5-----5-----5-----|
A-|--------------------|--------------------|--------------------|
E-|--------------------|--3-----------------|--------------------|

   


    Am
e-|--------0-----------|--------------------|--------------------|
B-|--------1-----0-h1--|--------1-----0-----|--------1-----1-----|
G-|--------------------|--------------------|-----2-----2-----2--|
D-|--------------------|--2-----------------|--------3-----3-----|
A-|--0-----------------|--------------------|--------------------|
E-|--------------------|--------------------|--1-----------------|

 


     F                    C                   C/B
e-|--------------------|--------------------|--------------------|
B-|--------1-----1-----|--------1-----1-----|--------3-----3-----|
G-|-----2-----2-----2--|-----0-----0-----0--|-----0-----0-----0--|
D-|--3-----3-----3-----|--------2-----2-----|--------0-----0-----|
A-|--------------------|--3-----------------|--2-----------------|
E-|--------------------|--------------------|--------------------|

  


    Am                  Am/E                   F
e-|--------------------|--------------------|--------------------|
B-|--------------0-h1--|--------1-----0-----|--------1-----1-----|
G-|--------------------|-----2-----2-----0--|-----2-----2-----2--|
D-|--------------------|--2-----------------|--------3-----3-----|
A-|--0-----------------|--------------------|--------------------|
E-|--------------------|--------------------|--1-----------------|

[ Tab from: http://www.guitartabs.cc/tabs/c/cohen_leonard/chelsea_hotel_tab.html ]
                          C                   C/E
e-|--------------------|--------------------|--------------------|
B-|--------1-----1-----|--------1-----1-----|--------1-----1-----|
G-|-----2-----2-----2--|-----0-----0-----0--|-----0-----0-----0--|
D-|--3-----3-----3-----|--------2-----2-----|--2-----2-----2-----|
A-|--------------------|--3-----------------|--------------------|
E-|--------------------|--------------------|--------------------|

 


     F                                         G
e-|--------------------|--------------------|--------------------|
B-|--------1-----1-----|--------1-----1-----|--------3-----3-----|
G-|-----2-----2-----2--|-----2-----2-----2--|-----4-----4-----4--|
D-|--------3-----3-----|--3-----3-----3-----|--------5-----5-----|
A-|--------------------|--------------------|--------------------|
E-|--1-----------------|--------------------|--3-----------------|




                          F
e-|--------------------|--------------------|--------------------|
B-|--------3-----3-----|--------1-----1-----|--------1-----1-----|
G-|-----4-----4-----4--|-----2-----2-----2--|-----2-----2-----2--|
D-|--5-----5-----5-----|--------3-----3-----|--3-----3-----3-----|
A-|--------------------|--------------------|--------------------|
E-|--------------------|--1-----------------|--------------------|

           


     C                   C/E                   C
e-|--------------------|--------------------|--------------------|
B-|--------1-----1-----|--------1-----1-----|--------1-----1-----|
G-|-----0-----0-----0--|-----0-----0-----0--|-----0-----0-----0--|
D-|--------2-----2-----|--2-----2-----2-----|--------2-----2-----|
A-|--3-----------------|--------------------|--3-----------------|
E-|--------------------|--------------------|--------------------|

  


    C/B                  Am                   Am/E
e-|--------------------|--------------------|--------------------|
B-|--------3-----3-----|--------1-----0-h1--|--------1-----0-----|
G-|-----0-----0-----0--|-----2-----2--------|-----2-----2-----0--|
D-|--------0-----0-----|--------2-----------|--2-----------------|
A-|--2-----------------|--0-----------------|--------------------|
E-|--------------------|--------------------|--------------------|




     F                                         C
e-|--------------------|--------------------|--------------------|
B-|--------1-----1-----|--------1-----1-----|--------1-----1-----|
G-|-----2-----2-----2--|-----2-----2-----2--|-----0-----0-----0--|
D-|--------3-----3-----|--3-----3-----3-----|--------2-----2-----|
A-|--------------------|--------------------|--3-----------------|
E-|--1-----------------|--------------------|--------------------|

   


    C/E                   F  
e-|--------------------|--------------------|--------------------|
B-|--------1-----1-----|--------1-----1-----|--------1-----1-----|
G-|-----0-----0-----0--|-----2-----2-----2--|-----2-----2-----2--|
D-|--2-----2-----2-----|--------3-----3-----|--3-----3-----3-----|
A-|--------------------|--------------------|--------------------|
E-|--------------------|--1-----------------|--------------------|

                  I     need   you ...


     C                                         F
e-|--------------------|--------------------|--------------------|
B-|--------1-----1-----|--------1-----1-----|--------1-----1-----|
G-|-----0-----0-----0--|-----0-----0-----0--|-----2-----2-----2--|
D-|--------2-----2-----|--2-----2-----2-----|--------3-----3-----|
A-|--3-----------------|--------------------|--------------------|
E-|--------------------|--------------------|--1-----------------|

   


                          C                   C/E   
e-|--------------------|--------------------|--------------------|
B-|--------1-----1-----|--------1-----1-----|--------1-----1-----|
G-|-----2-----2-----2--|-----0-----0-----0--|-----0-----0-----0--|
D-|--3-----3-----3-----|--------2-----2-----|--2-----2-----2-----|
A-|--------------------|--3-----------------|--------------------|
E-|--------------------|--------------------|--------------------|
    
        


     F                                        Am
e-|--------------------|--------------------|--------------------|
B-|--------1-----1-----|--------1-----1-----|--------1-----0-h1--|
G-|-----2-----2-----2--|-----2-----2-----2--|-----2-----2--------|
D-|--------3-----3-----|--3-----3-----3-----|--------2-----------|
A-|--------------------|--------------------|--0-----------------|
E-|--1-----------------|--------------------|--------------------|

    


   Am/E                   G                       
e-|--------------------|--------------------|--------------------|
B-|--------0-h1--0-----|--------3-----3-----|--------3-----3-----|
G-|-----2-----------0--|-----4-----4-----4--|-----4-----4-----4--|
D-|--2-----------------|--------5-----5-----|--5-----5-----5-----|
A-|--------------------|--------------------|--------------------|
E-|--------------------|--3-----------------|--------------------|
   
                                                     I    re -  ...



jmo@fy.chalmers.se  http://fy.chalmers.se/~jmo

Comments