Coheed And Cambria - Welcome Home Chords & Tabs

 

Welcome Home Chords & Tabs

Coheed And Cambria Chords & Tabs

Version: 1 Type: Tab 3 ratings
1 star 2 stars 3 stars 4 stars 5 stars
comments

Welcome Home Tab





  This is another tab that has not been on this site


  BY:Charlie Bruno

Palm Mute/.
Pinch Hormonics/*



Intro Riff 1 (Guitar I)
E|---------------------------------------------------------------------||
B|---------------------------------------------------------------------||
G|--------------7----------------------------------7-------------------||
D|---------9-10--10-9-7--7-10-9-7-------------9-10---10-9--------------||
A|-------7------------------------10-9------7-------------9--12-10-9---||
E|---0-0--------------------------------0-0---------------10-14-12-10--||
     . (sweep-)  .  . .  . .  . . .  .  . (sweep-)   .  . .  .  .  .

Intro Riff 2 (Guitar I)
E|-------------------------------------------------------------------||
B|-------------------------------------------------------------------||
G|--------------7----------------------------------7-----------------||
D|---------9-10--10-9-7--7-10-9-7-------------9-10---10-9------------||
A|-------7------------------------10-9------7-------------9--12-10/--||
E|---0-0--------------------------------0-0---------------10-14-12/--||
     . (sweep-)  .  . .  . .  . . .  .  . (sweep-)   .  . .  .

Pre-Verse 1 Guitar II
E|------------------------------------------------------||-----------------------------------------------------------||
B|------------------------------------------------------||-----------------------------------------------------------||
G|------------------------------------------------------||-----------------------------------------------------------||
D|-2--------------------------2-------------------------||-2--0h2p0h2p0h2p0h2p0h2p0h2p0h2p0h2------------------------||
A|-2--------------------------2------------9--12-10-9---||-2--------------------------------2------------9--12-10-9--||
E|-0--------------------------0------------10-14-12-10--||-0--------------------------------0------------10-14-12-10-||
                              .                                                             .

Pre-Verse 1 Guitar III
E|--------------------------------------------------------------||
B|--------------------------------------------------------------||
G|--------7*-------------------------------7*-------------------||
D|---9-10-----10-9-7--7-10-9-7--------9-10----10-9--------------||
A|-----------------------------10-9----------------9--12-10-----||
E|-------------------------------------------------10-14-12-10*-||
         
Pre-Verse 2 Guitars II & III
E|---------------------------------------------------------------------------||
B|---------------------------------------------------------------------------||
G|---------------------------------------------------------------------------||
D|-------4*---5*---4*------4*---5*--4*-----------7-----------------7---------||
A|---2-2----2----2-----2-2----2---2-------7-9-10---10-9-7*--7-9-10---10-9-7*-||
E|---0-0----0----0-----0-0----0---0-----0-----------------0------------------||
     . .   .   .       . . .  .   .       . . .  . .  .     . . .  . .  .

Verse Guitar II
E|---------||----------||-------||--------------|| Part 1 x4
B|---------||----------||-------||--------------|| Part 2 x4
G|---------||----------||-7-7-7-||--------------|| Part 3 x4
D|---9-9-9-||-10-10-10-||-x-x-x-||-9--9-9-9-9-7-|| Part 1 x2
A|---7-7-7-||-7--7--7--||-7-7-7-||-7--7-7-7-7-5-|| Part 4 x1
E|---------||----------||-------||----0-0-0-0---||
         .          .         .       . . . .

Verse Pt. 1 Guitar III
E|---------||----------||-------||---------------|| Part 1 x4
B|---------||----------||-------||---------------|| Part 2 x4
G|---------||----------||-7-7-7-||------------7*-|| Part 3 x4
D|---9-9-9-||-10-10-10-||-x-x-x-||-9--9-9-9-9----|| Part 1 x2
A|---7-7-7-||-7--7--7--||-7-7-7-||-7--7-7-7-7----|| Part 4 x1
E|---------||----------||-------||----0-0-0-0----||
         .          .         .       . . . .

Verse Guitar III
E|------------------------------||--------------------------||
B|------------------------------||--------------------------||
G|------------------------------||--------------------------||
D|------------------------------||-------9-10-9---7---------||
A|---7-7-9--10--9-----------7---||---7-7------------10-9----||
E|-----------------10-10-7----7-||-----------------------10-||

Post-Verse 1 Guitars II & III
E|------------------------------------------------0----0-||
B|------------------------------------------------1----1-|| The last two chords are played by Guitar II
G|---------2*--------2*--------2*-----------------2----0-|| on the twelve string neck and by Guitar III
D|---3-3-3-----3-3-3-----3-3-3-----3-3-3-3-3-3-5--2----2-|| normally.
A|---3-3-3-----3-3-3-----3-3-3-----3-3-3-3-3-3-5--0----3-||
E|---1-1-1-----1-1-1-----1-1-1-----1-1-1-1-1-1-3---------||
                                   . . . . . .


Post-Verse 2 Guitars II & III
E|---------------------------------------------------------------0----0-||
B|---------------------------------------------------------------1----1-|| The last two chords are played by Guitar II
G|---------2*bp0-0--------5*bp0-0--------2*bp0-0-----------------2----0-|| on the twelve string neck and by Guitar III
D|---3-3-3----------3-3-3----------3-3-3----------3-3-3-3-3-3-5--2----2-|| normally
A|---3-3-3----------3-3-3----------3-3-3----------3-3-3-3-3-3-5--0----3-||
E|---1-1-1----------1-1-1----------1-1-1----------1-1-1-1-1-1-3---------||
               . .            . .            . .  . . . . . .

Pre-Crazy Ass Solo Guitar II
E|----------------------------------------------------------------------------------------------------------------------||
B|----------------------------------------------------------------------------------------------------------------------|| After once through strum each of
G|--------------------------------2-2-2--2-2-2--2-2-2--2-2-2------------------------------------------------------------|| the first 3 chords once and let
D|---3-3-3--3-3-3--3-3-3--3-3-3---2-2-2--2-2-2--2-2-2--2-2-2---5-5-5--5-5-5--5-5-5--5-5-5---3-3-3--3-3-3--3-3-3--3-3-3--|| ring until next chord.
A|---3-3-3--3-3-3--3-3-3--3-3-3---0-0-0--0-0-0--0-0-0--0-0-0---5-5-5--5-5-5--5-5-5--5-5-5---3-3-3--3-3-3--3-3-3--3-3-3--||
E|---1-1-1--1-1-1--1-1-1--1-1-1--------------------------------3-3-3--3-3-3--3-3-3--3-3-3---1-1-1--1-1-1--1-1-1--1-1-1--||
     . . .  . . .  . . .  . . .   . . .  . . .  . . .  . . .   . . .  . . .  . . .  . . .   . . .  . . .  . . .  . . .

Pre-Crazy Ass Solo Pt. 1 Guitar III
E|--------5-----8-----5-----10-----8-----12-----8-----12-----7-----10-----7-----10-----5-----8-----5-----8-||
B|---------------------------------------------------------------------------------------------------------||
G|---------------------------------------------------------------------------------------------------------||
D|-----------------------------7-7---777----777---777----5-5---555----555---555----------------------------||
A|----8-8---888---888---888--------------------------------------------------------8-8---888---888---888---||
E|---------------------------------------------------------------------------------------------------------||
[ Tab from: http://www.guitartabs.cc/tabs/c/coheed_and_cambria/welcome_home_tab.html ]
Pre-Crazy Ass Solo Pt. 2 Guitar III
E|--------5-----8-----5-----10-----8-----12-----8-----12-----7-----10-----7-----10-----5-----8-------------||
B|---------------------------------------------------------------------------------------------------------||
G|-----------------------------------------------------------------------------------------------------5---||
D|-----------------------------7-7---777----777---777----5-5---555----555---555--------------------5-7---7-||
A|----8-8---888---888---888--------------------------------------------------------8-8---888---5-7---------||
E|---------------------------------------------------------------------------------------------------------||

Crazy Ass Solo Guitar III (Guitar II plays Verse)
E|-------------------------------------------------------------18b-17-15-15b-12-12--------------17-17----15-15----14-14----12-12-
B|---------------------------------------------------------15b----------------------------17-19-------17-------16-------15-------
G|---16p14p12-16p14p12-16p14p12-16p14p12-16p14p12-16p14p12-------------------------/16-18----------------------------------------
D|-------------------------------------------------------------------------------------------------------------------------------
A|-------------------------------------------------------------------------------------------------------------------------------
E|-------------------------------------------------------------------------------------------------------------------------------

Crazy Ass Solo Guitar III (Guitar II plays Verse) Continued...
E|--8-7h8p7----7---------------------||----------------------------------15b--15b----------------------------------------------------
B|----------10---8-10-11-12-12-------||-------17-15b--15b----------15h17-------------------------------12-8---10-7-------------------
G|------------------------------/9---||-14-16-------------16-14-16------------------------12*b--7h9h11------9------7-7---------------
D|-----------------------------------||-------------------------------------------9-10-13--------------------------------0-2-5-4p2p0-
A|-----------------------------------||----------------------------------------------------------------------------------------------
E|-----------------------------------||----------------------------------------------------------------------------------------------

Crazy Ass Solo Guitar III (Guitar II plays Verse) ...Continued...
E|----------------||--------7h8h10p8p7-------------------------------------19b---17-15-17p12-12-12-------------------
B|----------------||-8h9h11------------10-8--7--8-7h8p7--------------------------------------------17p12-12-12-12p10-
G|----------------||--------------------------------------9b------9b-------------------------------------------------
D|-2--4--5--4p0h2-||-------------------------------------------9-------9---------------------------------------------
A|----------------||-------------------------------------------------------------------------------------------------
E|----------------||-------------------------------------------------------------------------------------------------

Crazy Ass Solo Guitar III (Guitar II plays Verse) ...Continued...
E|----------------------------------------------||------------------------------------------------------------------------7p3p0-5-
B|----------------------------------------------||-------------------------------4h5p4p1------------------------------------------
G|---9-9/11-11/12-12-12/14-14-14/16-16-16/17-17-||-------2-4-5-7-9-9*-7p5h7--4-5----------4--0-2--2b--0----0h2p0--------2---------
D|---x-x-x--x--x--x--x--x--x--x--x--x--x--x--x--||-0-2-5-------------------------------------------------2--------0-2-5-----------
A|-0h7-7/9--9-/10-10-10/12-12-12/14-14-14/15-15-||--------------------------------------------------------------------------------
E|----------------------------------------------||--------------------------------------------------------------------------------
                                                   . . . . . . . .                                     . .        . . . .

Crazy Ass Solo Guitar III (Guitar II plays Verse) ...Continued...
E|-3-5-7b--10-----------------------------||-------------------------------------------------------------------------------------------
B|------------10b--8-7-8--7-5--5h7h8p7--5-||---7p5p0-8p5p0-12p8p0-13p8p0-12p8p0-8p5p0-7b---7p5p0-8p5p0-12p8p0-13p8p0-12p8p0-8p5p0-7b---
G|----------------------------------------||-4-------------------------------------------5---------------------------------------------
D|----------------------------------------||-------------------------------------------------------------------------------------------
A|----------------------------------------||-------------------------------------------------------------------------------------------
E|----------------------------------------||-------------------------------------------------------------------------------------------

Crazy Ass Solo Guitar III (Guitar II plays Verse) ...Continued
E|--------------------------------------------------------3-------3-------3--|| Each section of the crazy ass solo is played by a different guitar. ie:
B|---7p5p0-8p5p0-12p8p0-13p8p0-15p12p0-13p8p0-12----5p3p0---5p3p0---5p3p0----|| Guitar III plays first part before || while Guitar II plays verse, next
G|-7---------------------------------------------/4--------------------------|| section of solo is played by Guitar II while guitar III plays verse and
D|---------------------------------------------------------------------------|| so on until the what feels like a long solo part is over.
A|---------------------------------------------------------------------------||
E|---------------------------------------------------------------------------||

Outro (Oh Oh Oh part) Guitar II
E|---------||-------||-------||-------||---------------|| Part 1 x4
B|---------||-------||-------||-------||---------------|| Part 2 x4
G|---------||-------||-------||-------||---------------|| Part 3 x4
D|---2-2-2-||-5-5-5-||-7-7-7-||-9-9-9-||-9--9-9-9-9----|| Part 4 x2
A|---2-2-2-||-3-3-3-||-5-5-5-||-7-7-7-||-7--7-7-7-7-5*-|| Part 5 x1
E|---0-0-0-||-0-0-0-||-0-0-0-||-0-0-0-||----0-0-0-0----||

Outro (Oh Oh Oh part) Guitar III
E|---------------------------------------------------------------------------------------------------------------------||
B|--------------------------------------------------5-5*b--------------------------------------------------------------||
G|------4--2--0-----5--4--2-----2--0------------4-7----------------0-2-4-2--0----0-2-4-5-4--2---------0-2-0------------||
D|---2-----------------------0--------4--2--------------------2--2-----------------------------0--0-2--------4--2------||
A|---------------3------------------------------------------------------------3----------------------------------------||
E|---------------------------------------------------------------------------------------------------------------------||

Outro (Oh Oh Oh part) Guitar IV
E|-------------------------------------------------------------------------||
B|-------------------------------------------------------------------------||
G|----------------------------------------------7---------------9------9-7-||
D|---------9--------9--------10-------10----------------7-----9------------||
A|---7-7-7----7-7-7----7-7-7----7-7-7-----7-7-7---7-7-7---7-7-----7-7------||
E|-------------------------------------------------------------------------||




























































































































































































































































































































Comments