Coheed And Cambria - Welcome Home Correct Chords & Tabs

 

Welcome Home Correct Chords & Tabs

Coheed And Cambria Chords & Tabs

Version: 1 Type: Tab 5 ratings
1 star 2 stars 3 stars 4 stars 5 stars
comments

Welcome Home Correct Tab

   
Song: Welcome Home
Artist: Coheed & Cambria
Album: Good Apollo I'm Burning Star IV, Volume 1: From Fear Through The Eyes Of Madness
Tabbed by: Neverender

okay guys this is the way Claudio & Travis played it when I saw them...I'm 100% sure this is the correct way 

(First Part)
Gtr. 1
e-----------------------------------------------------------------------------
B-----------------------------------------------------------------------------
G-----------------------------------------------------------------------------
D-----------------------------------------------------------------------------
A----8-9s11---9-8-6--6-9-8-6------------8-9s11---9-8-----3---6---4---3--------
E--6-------------------------9-8-6-----------------------4---8---6---4---6----    

play that thru twice on the accoustic, then the electric comes in on the thrid time w/ mucho distortiono doing the same
Once Claudio starts w/the electric, Travis does this
(notice its in time w/ what Claudio is doing)

Gtr. 2
e----------------------------------------------------------------------------
B----------------------------------------------------------------------------
G------------------------------------------3s4p3s4p3s4p3s4p3-----------------
D----------------------------------------------------------------------------
A----------------------------------------------------------------------------
E----------------------------------------------------------------------------

so do that 2 more times, then:
[ Tab from: http://www.guitartabs.cc/tabs/c/coheed_and_cambria/welcome_home_correct_tab.html ]
(Second Part)
e----------------------------------------------------------------------------
B----------------------------------------------------------------------------
G----------------------------------------------------------------------------
D-----------------------------6---------------6------------------------------
A--66-8-9-8--66-8-9-8---6-8-9---9-8-6---6-8-9---9-8-6------------------------
E----------------------------------------------------------------------------   (x2)

then go back to the first part, then back to the second part.  You with me so far?
Now for the verse:

e---------------------------------------------------------------------------
B---------------------------------------------------------------------------
G----8--------8--------8--------8---------9--------9--------9--------9------
D----8--------8--------8--------8---------9--------9--------9--------9------
A--6---6----6---6----6---6----6---6-----7---7----7---7----7---7----7---7----
E---------------------------------------------------------------------------

e---------------------------------------------------------------------------
B---------------------------------------------------------------------------
G--11-----11-----11-----11------8-------8-------8-----8s9-------------------
D--11-----11-----11-----11------8-------8-------8-----8s9-------------------
A-9--9---9--9---9--9---9--9---6---6---6---6---6---6---6s7-------------------
E---------------------------------------------------------------------------  

that progression keeps repeating for the verse.
when it gets to the "Hang on to the glory of my right hand..." part, he just plays a really choppy
E chord, and then the "Here laid to rest..." he plays: 
G#m    B    E

And then it goes back to the verse.  Sorry I haven't got the solos down yet...maybe I'll get them 
figured out sometime...
Key: S = slide
     P = pull off 

Comments