Coheed And Cambria - Wake Up Chords & Tabs

 

Wake Up Chords & Tabs

Coheed And Cambria Chords & Tabs

Version: 3 Type: Tab

Wake Up Tab

Capo 4th fret

intro/verse                    Guitar 1 (Claudio)
e|----------------------------------------------------------------|
B|-------3----------3---------------------------------------------|
G|---------0----------0-------------0--0h2-----2--2p0-------------|
D|-----------0----------0--------0----------0---------------------|
A|----------------------------------------------------------------|
E|--3-------------3----------2h3----------------------------------|

Chorus
e|-------------------------------------------------------------------------|
B|----------3---------------3---3----3-3p0-----1---1---1-1p0------1---1---1|
G|--------0-----------------0---0----0-0-------0---0---0-0--------0---0---0|
D|------0-------0----0----------------------------------------2---2---2---2|
A|-------------------------------------------3---3---3---------------------|
E|--2h3-------3----3----3------3---3----------------------------3---3---3--|


                               Guitar 2 (Travis)

Intro
e|--------------------7--9--6--4--2------------------------------|
B|-7--5--4--2--0-------------------------------------------------|
G|---------------------------------------------------------------|
D|---------------------------------------------------------------|
A|---------------------------------------------------------------|
E|---------------------------------------------------------------|

[ Tab from: http://www.guitartabs.cc/tabs/c/coheed_and_cambria/wake_up_tab_ver_3.html ]
Verse
e|---------------------------------7-----------------------------|
B|-7--9--7-------------7---9---7---------------------------------|
G|-----------4---------------------------------------------------|
D|---------------------------------------------------------------|
A|---------------------------------------------------------------|
E|---------------------------------------------------------------|


Chorus Fill 3:06
e|----------------------------------------------------------------------|
B|---------------------------------------------19---16------------------|
G|--16/18--16---------------------16-------------------------16---------|
D|-------------16/18--16----16h18----18----18------------18------18---16|
A|----------------------------------------------------------------------|
E|----------------------------------------------------------------------|

Fill at 3:06
e|--19p16-------19p16-------19p16---------------------------------------|
B|--------19p16-------19p16-------19p16---------------------------------|
G|----------------------------------------------------------------------|
D|----------------------------------------------------------------------|
A|----------------------------------------------------------------------|
E|----------------------------------------------------------------------|


I know Coheed plays a half step down but I tabbed the song for standard to
save everyone the trouble.

Just listen to the song and figure out where to put the fills in for guitar 2.

Any comments or questions Aim me at upflupchuckfck.