Coheed And Cambria - Time Consumer Chords & Tabs

 

Time Consumer Chords & Tabs

Coheed And Cambria Chords & Tabs

Version: 3 Type: Tab 0 ratings
1 star 2 stars 3 stars 4 stars 5 stars
comments

Time Consumer Tab

This is only one guitar part for the intro.

Im 100% possitive it is right. If you have any changes email me at deliriumtrigger@comcast.net

Have fun!!

Drop D tuning

~ slide
p pull off

e-------------------------------------------------------------|
b-------------------------------------------------------------|
g-------0-0-------------0---------------0-------------0----0--|
d--~5-7------9--7-5-5-7---9---7-5-7-5-7---9---7-5-5-7---9-----|
a------------8------------8---------------8-------------8-----|
d-------------------------------------------------------------|

e----5-----5---6p5-6p5-6p5-----5-----5---5---5---5-----------|
b------6-6---6-------------------8-8---8---8---8---8---------|
g--3------------------------0--------------------------------|
d------------------------------------------------------------|
a------------------------------------------------------------|
d------------------------------------------------------------|

e-----5-8p6------5---8-----5-8p6------5---8------0------0-------|
b--------------------------------------------------8------8-----|
g--~3-------~3-3---3----~3-------~3-3---3----~10-----10-----10--|
d---------------------------------------------------------------|
a---------------------------------------------------------------|
d---------------------------------------------------------------|

e------0------0---------------|
b--------8------8-------------|
g--~10-----10-----10-10-------|
d-----------------------------|
a-----------------------------|
d------------------------0----|
[ Tab from: http://www.guitartabs.cc/tabs/c/coheed_and_cambria/time_consumer_tab_ver_3.html ]
e-------------------------------------------------------------|
b-------------------------------------------------------------|
g---------0-------------0---------------0-------------0----0--|
d--7-5-7-----9--7-5-5-7---9---7-5-7-5-7---9---7-5-5-7---9-----|
a------------8------------8---------------8-------------8-----|
d-------------------------------------------------------------|

e--13p10----13p10----13p10----13p10----13p10--------|
b--------11-------11-------11-------11-------11-----|
g---------------------------------------------------|
d---------------------------------------------------|
a---------------------------------------------------|
d---------------------------------------------------|

e--17p13----17p13----17p13----17p13----17p13--------|
b--------15-------15-------15-------15-------15-----|
g---------------------------------------------------|
d---------------------------------------------------|
a---------------------------------------------------|
d---------------------------------------------------|

e-----20-------20-------20-------20-------20---------|
b--------18-------18-------18-------18-------18------|
g--19-------19-------19-------19-------19-------19---|
d----------------------------------------------------|
a----------------------------------------------------|
d----------------------------------------------------|

e-----20-------20-------20-------20-------20---------|
b--------18-------18-------18-------18-------18------|
g--19-------19-------19-------19-------19-------19---|
d----------------------------------------------------|
a----------------------------------------------------|
d----------------------------------------------------|

e------0------0-----------0------0--------------|
b--------8------8-----------8------8------------|
g--~10-----10-----10--~10-----10-----10-10------|
d-----------------------------------------------|
a-----------------------------------------------|
d-------------------------------------------0---|


Coheed ROCKS!!!!!
Comments