Coheed And Cambria - Three Evils Embodied In Love And Shadow Chords & Tabs

 

Three Evils Embodied In Love And Shadow Chords & Tabs

Coheed And Cambria Chords & Tabs

Version: 4 Type: Tab 0 ratings
1 star 2 stars 3 stars 4 stars 5 stars
comments

Three Evils Embodied In Love And Shadow Tab

   
----------------------------------------------------------------
Three Evils (Embodied In Love and Shadow) - Coheed and Cambria
----------------------------------------------------------------

***NOTE: This is NOT my tab, I just had it on my computer from somewhere else and I
figured UG could use a better Three Evils tab.  I had no part in making it and take
no credit for its awesomeness.

Standard tuning

Claudio
Verse A
e|--------------------------------|
B|--------------------------------|
G|--------------------------------|
D|1111-11-1212-12-1111-11-1212-12-|
A|1212-12-1212-12-9-9--9--1212-12-|
E|--------------------------------|

Travis
Verse A
e|--------------------------------|
B|--------------------------------|
G|--------------------------------|
D|1111-11-1212-12-1616-16-1212-12-|
A|1212-12-1212-12-1616-16-1212-12-|
E|--------------------------------|

Claudio & Travis
Verse B
e|--------------------|
B|--------------------|
G|--------------------|
D|9999999999999999999-|
A|9999999999999999999-|
E|7777777777777777777-|

Claudio & Travis
Verse C
e|--------------------------------------------------------------------------|
B|--------------------------------------------------------------------------|
G|--------------------------------------------------------------------------|
D|--------------------------------------------------------------------------|
A|9999999999999999999999999-11-12121212-xx-12121212-xx-12121212-xx-12121212-|
E|7777777777777777777777777-9--10101010-xx-10101010-xx-10101010-xx-10101010-|

Claudio
Chorus
e|------------------------------------------------------------------------------|
B|------------------------------------------------------------------------------|
G|----------------------------------------------------------------7-6---7-6-----|
D|--------------------------------------------------------------7-----7-----7---|
A|7777777777777777-222222-444444-5555555555555----------------------------------|
E|5555555555555555-000000-222222-3333333333333----------------------------------|

Travis
Chorus
e|----------------------------------------------|
B|----------------------------------------------|
G|-----13------9------13------9------13----9----|
D|----------------------------------------------|
A|1212----1212---1212----1212---1212----12---12-|
E|----------------------------------------------|

cont...
e|----------------------------------------------|
B|-----10---------------------------------------|
G|-------------9------13------9------13----9----|
D|----------------------------------------------|
A|1212----1212---1212----1212---1212----12---12-|
E|----------------------------------------------|

cont...
e|----------------------------------------------|
B|----------------------------------------------|
G|-----13------9------13------9------13----9----|
D|----------------------------------------------|
A|1010----1010---1010----1010---1010----10---10-|
E|----------------------------------------------|

cont...
e|-------------------------------------------------------|
B|-------------------------------------------------------|
G|-----13------9-----------------------------------------|
D|----------------------------12-11----12-11-------------|
A|1010----1010---1010-12------------12------1212---------|
E|-------------------------------------------------------|
[ Tab from: http://www.guitartabs.cc/tabs/c/coheed_and_cambria/three_evils_embodied_in_love_and_shadow_tab_ver_4.html ]
Claudio & Travis
Following you...
e|---------------------------------------------------------------|
B|----------------*-------*--------------------------------------|
G|----------------4-------2--------------------------------------|
D|---------------------------------777777777777777---------------|
A|444444444-0h4h5---2h4p2---xx-7-7-555555555555555---------------|
E|222222222-----------------xx-5-5-------------------------------|

Claudio & Travis
On the wrong way out...
e|--------------------------------------------------------|
B|--------------------------------------------------------|
G|--------------------------------------------------------|
D|--------------------------------------------------------|
A|9999999999999999-121212121212121212-1111-1111-1111-1111-|
E|7777777777777777-101010101010101010-9-9--9-9--9-9--9-9--|

Claudio
Dear my friends...
e|-----------------------------------------------------------------------------------|
B|-----------------------------------------------------------------------------------|
G|-----------------------------------------------------------------------------------|
D|----------------------------------------------------------77777777777777777777777--|
A|7777777777777-77777777777777-44444444444444-2222222222222-55555555555555555555555--|
E|5555555555555-44444444444444-22222222222222-0000000000000--------------------------|

e|----------------------------------|
B|----------------------------------|
G|---7-6---7-6----------------------|
D|-7-----7-----7--------------------|
A|----------------------------------|
E|----------------------------------|

Travis*
Dear my friends...
e|-------------------------9------9------9------9------9------------|
B|----9--10------9--10-------10-----10-----10-----10----10----------|
G|-9----------9-----------------9------9------9------9------9-------|
D|------------------------------------------------------------------|
A|------------------------------------------------------------------|
E|------------------------------------------------------------------|
then
e|-12-9----12-9----12-9----12-9----12-9----12--9-10-12-9-10-12-9-10-12-9-10-12-|
B|-----------------------------------------------------------------------------|
G|------11------11------11------11------11-------------------------------------|
D|-----------------------------------------------------------------------------|
A|-----------------------------------------------------------------------------|
E|-----------------------------------------------------------------------------|
then
e|-9-10-12-9-10-12-9-10-12-9-10-9----9----9-----------------|
B|------------------------------------12---12---10~---------|
G|----------------------------------------------------------|
D|----------------------------------------------------------|
A|----------------------------------------------------------|
E|----------------------------------------------------------|

next
e|-12-9----12-9-----------12-9----12-9-------------12-9----12-9---------------------|
B|------10--------10-0-9--------10------10-0------------10------10-0----------------|
G|-------------------------------------------11----------------------9--------------|
D|----------------------------------------------------------------------------------|
A|----------------------------------------------------------------------------------|
E|----------------------------------------------------------------------------------|
then
e|-12-9----12-9----12-9----12-9----12-9----12--9-10-12-9-10-12-9-10-12-9-10-12-|
B|-----------------------------------------------------------------------------|
G|------11------11------11------11------11-------------------------------------|
D|-----------------------------------------------------------------------------|
A|-----------------------------------------------------------------------------|
E|-----------------------------------------------------------------------------|
then
e|-9-10-12-9-10-12-9-10-12-9-10-9----9----9------------------|
B|------------------------------------12---12---10~----------|
G|-----------------------------------------------------------|
D|-----------------------------------------------------------|
A|-----------------------------------------------------------|
E|-----------------------------------------------------------|
Comments