Coheed And Cambria - Three Evils Embodied In Love And Shadow Chords & Tabs

 

Three Evils Embodied In Love And Shadow Chords & Tabs

Coheed And Cambria Chords & Tabs

Version: 3 Type: Tab 0 ratings
1 star 2 stars 3 stars 4 stars 5 stars
comments

Three Evils Embodied In Love And Shadow Tab

   
--------------------------------------------------------------------------
	THREE EVILS (EMBODIED IN LOVE AND SHADOW) - Coheed and Cambria
--------------------------------------------------------------------------

Tabbed by: joecool71
Email: mattconnellan@yahoo.com

Tuning:Standard

The third in my Coheed series, this one wasn't too bad - to figure out, that is.
Playing it is a different story, especially the outro lead. Enjoy!

Verse
e|-------------------------------|--|-----------------------------------------------------------|
B|-------------------------------|--|-----------------------------------------------------------|
G|-------------------------------|--|-----------------------------------------------------------|
D|-7-7--7-7-7--7-9--9---9--11-11-|X2|-7-7-7-7-7-7-7-7-9--9--9--9--11-11-11-11-9-9-9-9-9-9-9-9-9-|
A|-7-7--7-5-5--5-11-11--11-9--9--|--|-7-7-7-7-5-5-5-5-11-11-11-11-9--9--9--9--9-9-9-9-9-9-9-9-9-|
E|-5-5--5-5-5--5-----------------|--|-5-5-5-5-5-5-5-5-------------------------7-7-7-7-7-7-7-7-7-|

Chorus (Chords) (Play 1st part only when entering chorus after each verse)
e|------|-------------------|
B|------|-------------------|
G|----7-|-------------------|
D|-11-7-|-7---9--4---5----7-|
A|-11-5-|-7---9--4---5----7-|
E|-9----|-5---7--2---3----5-|
          .   .  .   .    
Chorus lead
e|------------------------------------------------------------------------------|
B|------------------------------------------------------------------------------|
G|-13----13--------14----13--------12----12--------12---------------------------|
D|----14----14--------14----14--------12----12--------12---12p11----12----11h12-|
A|-------------16--------------16--------------14----------------12----12-------|
E|------------------------------------------------------------------------------|

Break
e|-----------------------------------------|
B|-----------------------------------------|
G|-------------------------777777777777777-|
D|-44444444----------------777777777777777-|
A|-44444444-0245-402---0-7-555555555555555-|
E|-22222222----------4---------------------|

Bridge
e|----------------------------------------------------------------|
B|----------------------------------------------------------------|
G|-4444444444444444444444444444444477777777777777777-66-66-99-9-9-|
D|-4444444444444444444444444444444477777777777777777-77-77-77-7-7-|
A|-2222222222222222222222222222222255555555555555555-77-77--------|
E|----------------------------------------------------------------|

Outro (Chords)
e|----------------------------------|
B|----------------------------------|
G|-----------------7----------------|
D|-7---7---4---2---7----------------|
A|-7---7---4---2---5---4-5---4-5-4--|
E|-5---4---2---0-----------5--------|

Outro lead 1
e|-----------------9----9----9----9----12----12----12----12----12----->
B|---9-10----9-10---10---10---10---10----10----10----10----10----10--->
G|-9-------9----------11---11---11---11----11----11----11----11----11->
D|-------------------------------------------------------------------->
A|-------------------------------------------------------------------->
E|-------------------------------------------------------------------->
                   .. . .. . .. . .. . . . . . . . . . . . . . . . .
[ Tab from: http://www.guitartabs.cc/tabs/c/coheed_and_cambria/three_evils_embodied_in_love_and_shadow_tab_ver_3.html ]
e|----------12-------12-------12-------12-------12-------12-------12-------12----12-------------|
B|----14-15-------14-------14-------14-------14-------14-------14-------14----------14----14----|
G|-16----------16-------16-------16-------16-------16-------16-------16-------16-------16----14-|
D|----------------------------------------------------------------------------------------------|
A|----------------------------------------------------------------------------------------------|
E|----------------------------------------------------------------------------------------------|

Outro lead 2
e|-12-------12--------------12-------12--------------12-------12------------->
B|-------14----14----14-----------14----14----14-----------14----14----14---->
G|----16----------16----13-----16----------16----11-----16----------16------->
D|------------------------------------------------------------------------14->
A|--------------------------------------------------------------------------->
E|--------------------------------------------------------------------------->

e|----------12-------12-------12-------12-------12-------12-------12|------12----12-------------|
B|----14-15-------14-------14-------14-------14-------14-------14---|---14----------14----14----|
G|-16----------16-------16-------16-------16-------16-------16------|16-------16-------16----14-|
D|------------------------------------------------------------------|---------------------------|
A|------------------------------------------------------------------|---------------------------|
E|------------------------------------------------------------------|---------------------------|

Outro lead 2 alternate ending
e|----------------------------|
B|----15-14-15-14----14-------|
G|-16-------------16----16-14-|
D|----------------------------|
A|----------------------------|
E|----------------------------|

LYRICS AND RIFF PLACEMENT
[Verse] x3
Across the floor in the hand of where we drove the drill
A cautious ear to the mouth of your confession
Think of all the things we put him through
In the face of his God would he tell the truth?
Still recorded were the words that dribbled out his kiss
When eyes go blind in this man of what could once become
Sever the limbs of his torso in sleep
And burn what remains so the world may now see
No longer... Will we wait for your answers
Back to the hell where you've come from
Think of all the times you've once had
Write them in a letter that says goodbye
[Chorus w/ lead] x2
You'll listen to reason while you're face down in the dirt
You'll stomach the hurt and break for him here just how much he's worth
[Verse] x2
Slowly discarded were the remains of his lonely youth
Among the alley where the dwellers scare to notice
Picture a young boy in pieces and streets with leveled malfunctions
No name to be called redeemer
I'll fix him restore him... With the love if no other
Think of all the things you did before
Write them in a letter that says reborn
[Chorus w/ lead] x2
You'll listen to reason while you're face down in the dirt
You'll stomach the hurt and break for him here just how much he's worth
[Break] x3
Following you across the interstate walking away... I'll fire on
[Bridge] x3
On the wrong way out
On the causeway through/to never where
[Outro w/ lead 1] x2
Dear my friends
In the time we spent forever after beyond this when will our nightmare ever end?
[Outro w/ lead 2] until fadeout
Pull the trigger and the nightmare stops...

| /  slide up
| \  slide down
| h  hammer-on
| p  pull-off
| ~  vibrato
| +  harmonic
| x  Mute note
===============================================================================
Comments