Coheed And Cambria - The Velorium Camper Iii Al The Killer Chords & Tabs

 

The Velorium Camper Iii Al The Killer Chords & Tabs

Coheed And Cambria Chords & Tabs

Version: 2 Type: Tab 0 ratings
1 star 2 stars 3 stars 4 stars 5 stars
comments

The Velorium Camper Iii Al The Killer Tab

   
--------------------------------------------------------------------------
    THE CAMPER VELOURIUM III: AL THE KILLER - Coheed and Cambria
--------------------------------------------------------------------------

Tabbed by: joecool71
Email: mattconnellan@yahoo.com

Tuning: Standard

This is the eighth song in my Coheed series, and a pretty cool one at that.
The lead chorus riff is badass. Enjoy!!

Intro
e|---------------------------------------------------------------------------------------------|
B|---------------------------------------------------------------------------------------------|
G|---------------------------------------------------------------------------------------------|
D|-------5-6-0-------------------6-5-0-------------------5-6-0-------------------6-5-0-5--5--5-|
A|-5-5-5-3-4-0-6-6-6-6-6-6-6-6-6-4-3-0-5-5-5-5-5-5-5-5-5-3-4-0-6-6-6-6-6-6-6-6-6-4-3-0-5--5--5-|
E|-3-3-3-------4-4-4-4-4-4-4-4-4-------3-2-3-3-3-3-3-3-3-------4-4-4-4-4-4-4-4-4-------3--3--3-|

Verse
e|-------------------------------------------------|
B|-------------------------------------------------|
G|-------------------------------------------------|
D|-------5-6-0-------------------6-5-0-------------|
A|-5-5-5-3-4-0-6-6-6-6-6-6-6-6-6-4-3-0-5-5-5-5-5-5-|
E|-3-3-3-------4-4-4-4-4-4-4-4-4-------3-3-3-3-3-3-|

Fill 1
e|-----------------|
B|-----------------|
G|-----------------|
D|---5-----3---3/5-|
A|-3---5-0---4-----|
E|-----------------|

Fill 2
e|------------------------------------------------------------------|
B|------------------------------------------------------------------|
G|------------------------------------------------------------------|
D|-9--9--9-9-9-9-9--9--9-9-9-9-9--9--9-9-9--10-10-10-11-11-11-12-12-|
A|-7--7--7-7-7-7-7--7--7-7-7-7-7--7--7-7-7--8--8--8--9--9--9--10-10-|
E|------------------------------------------------------------------|

Fill 3
e|---------------------------------------------|
B|---------------------------------------------|
G|---------------------------------------------|
D|-------5-6-0-------------------6-5-0-5--5--5-|
A|-5-5-5-3-4-0-6-6-6-6-6-6-6-6-6-4-3-0-5--5--5-|
E|-3-3-3-------4-4-4-4-4-4-4-4-4-------3--3--3-|

Chorus
e|--------------------------------------------------------------------------|
B|--------------------------------------------------------------------------|
G|-----------------7777777777777777--------------------99----99----55-44----|
D|-999999999999999977777777777777775555555555555555-99-99-99-99-55-55-44-55-|
A|-999999999999999955555555555555555555555555555555-99-77-99-77-55-33-22-55-|
E|-7777777777777777----------------3333333333333333-77----77----33-------33-|
[ Tab from: http://www.guitartabs.cc/tabs/c/coheed_and_cambria/the_velorium_camper_iii_al_the_killer_tab_ver_2.html ]
Chorus lead 1
e|-10-7------------------------------------------------2-0-----------0-----------|
B|------10-7----------------10-12----10-12----10---0-3-----3-20----3---3-320-2---|
G|-----------7h9p7--7--9/11-------11-------11----2-------------2-0-------------2-|
D|----------------9--------------------------------------------------------------|
A|-------------------------------------------------------------------------------|
E|-------------------------------------------------------------------------------|

Chorus lead 2
e|-10-7------------------------------------------------------------------------------0------|
B|------10-7-------------------10------12------10------12------10-----10------3---3-320-2---|
G|-----------7h9p7-7h9p7--11-11---11-11---11-11---11-11---11-11---11~~---11-0-------------2-|
D|----------------9-----9-------------------------------------------------------------------|
A|------------------------------------------------------------------------------------------|
E|------------------------------------------------------------------------------------------|

Chorus lead 3
e|-10-7-----------------------------------------------------------------2-0-----------0-----------|
B|------10-7-------------------10------12------10------12------12---0-3-----3-20----3---3-320-2---|
G|-----------7h9p7-7h9p7--11-11---11-11---11-11---11-11---11-11---2-------------2-0-------------2-|
D|----------------9-----9-------------------------------------------------------------------------|
A|------------------------------------------------------------------------------------------------|
E|------------------------------------------------------------------------------------------------|

Bridge (chords)
e|--------|
B|--------|
G|-11-----|
D|-11---7-|
A|-9----7-|
E|------5-|
        .

LYRICS AND RIFF PLACEMENT

[INTRO]
[VERSE] X8
At birth given scars along tender heart liberties
In justice for awkward living situated casualties
They lay dead along your floor
Careful not to wake them they're sleeping
In the morrows good mourning
The dying will discard the wish to live
[FILL 1]
[FILL 2]
Let this colony know in the name of the dead we're coming
[CHORUS W/ LEAD 1] X2
When I kill her, I'll have her
Die white girls, die white girls
[FILL 3]
[VERSE] X8
You'll get nothing for something
Arise the hidden war of a dead song unsung
The night of your children's day
Beneath the surface sealed by the floors boarded up
Seal the lips of your voice with haste
And cower at the sounds as they make their way
Surprise speed and malice
The opposing break the surface hold ready
[FILL 1]
[FILL 2]
Let this colony know in the name of the dead we're coming
[CHORUS W/ LEAD 1] X2
When I kill her, I'll have her
Die white girls, die white girls
[BRIDGE] X2
Will the killing veil love should the heroes play dumb
But killings no fun when the heroes are none
[FILL 3] X4
[FILL 1]
[FILL 2]
Let this colony know in the name of the dead we're coming
[CHORUS W/ LEAD 1] X2
Bye, bye world, bye, bye world
Die white girls, die white girls
[CHORUS W/ LEAD 2]
Bye, bye world, bye, bye world
[CHORUS W/ LEAD 3]
Die white girls, bye bye world


| /  slide up
| \  slide down
| h  hammer-on
| p  pull-off
| ~  vibrato
| +  harmonic
| x  Mute note
===============================================================================
Comments