Coheed And Cambria - The Velorium Camper Iii Al The Killer Chords & Tabs

 

The Velorium Camper Iii Al The Killer Chords & Tabs

Coheed And Cambria Chords & Tabs

Version: 1 Type: Tab 0 ratings
1 star 2 stars 3 stars 4 stars 5 stars
comments

The Velorium Camper Iii Al The Killer Tab

   
Coheed and Cambria
The Velorium Camper III: Al the Killer
Tabbed by Kellen

b=bend
~=let ring

Standard Tuning

Intro/Verse
E|-------------------------------
B|-------------------------------
G|-------------------------------
D|-------------------------------  listen to song for number of times to play this
A|------320----------320---------
E|-2222-----33333333-----22222222

Verse ending
E|-------------------
B|-------------------
G|-------------------
D|---4--------5----5b
A|-----4-------------
E|-2-----2--3----3---

Pre Chorus  "let this colony know..."
E|-------------------------------------
B|-------------------------------------
G|-4-4-4-4-----------------------------   
D|-4-4-4-4-4-4-4-5-6-7-8-9-000-111-1212
A|-2-2-2-2-4-4-4-5-6-7-8-9-000-111-1212
E|---------2-2-2-3-4-5-6-7-888-999-1010
                            ^   ^
                           10s  11s

Chorus  x2   "when I kill her, I'll have her..."
E|----------------------------------------------------------------------
B|----------------------------------------------------------------------
G|------------------7777777777777777------------------------------------
D|-9999999999999999-7777777777777777-5555555555555555-------------------
A|-9999999999999999-5555555555555555-5555555555555555---77--77--77-55-44
E|-7777777777777777------------------3333333333333333-77--77--55--------

Intro/Verse again

Verse Ending

Pre Chorus
[ Tab from: http://www.guitartabs.cc/tabs/c/coheed_and_cambria/the_velorium_camper_iii_al_the_killer_tab.html ]
Bridge  x2  "Will the killing veil love..."
E|------------------------------------------------------------------
B|------------------------------------------------------------------
G|-11111111111111111111111111111111---------------------------------
D|-11111111111111111111111111111111-77777777777777777777777777777777
A|-99999999999999999999999999999999-77777777777777777777777777777777
E|----------------------------------55555555555555555555555555555555

Intro/Verse

Verse Ending

Pre Chorus

Last Chorus  x3
E|----------------------------------------------------------------------
B|----------------------------------------------------------------------
G|------------------7777777777777777------------------------------------
D|-9999999999999999-7777777777777777-5555555555555555-------------------
A|-9999999999999999-5555555555555555-5555555555555555---77--77--77-55-44
E|-7777777777777777------------------3333333333333333-77--77--55--------

Them
E|----------------------------------------------------------------------
B|----------------------------------------------------------------------
G|------------------7777777777777777------------------------------------
D|-9999999999999999-7777777777777777-5555555555555555-------------------
A|-9999999999999999-5555555555555555-5555555555555555---77--77--77-55-44
E|-7777777777777777------------------3333333333333333-77--77--55--------

E|-------------------
B|-------------------
G|-------------------
D|-------------------
A|---77--77--77-55-44
E|-77--77--55--------

End on
E|---
B|---
G|---
D|-9~
A|-9~
E|-7~

Comments or corrections, email me at kgator86@msn.com
Comments