Coheed And Cambria - The Velorium Camper Ii Backend Of Forever Chords & Tabs

 

The Velorium Camper Ii Backend Of Forever Chords & Tabs

Coheed And Cambria Chords & Tabs

Version: 2 Type: Tab 0 ratings
1 star 2 stars 3 stars 4 stars 5 stars
comments

The Velorium Camper Ii Backend Of Forever Tab

Verse 
Guitar 1 & 2... I tried to put um together
e|-----------------------------| 
b|-----------------------------| 
g|----0-1-3-0-1---0------------| 
d|-5------------3---1-3-0-1----| 
a|-3---------------------------| 
e|-----------------------------| 

e|-----------------------------| 
b|-----------------------------| 
g|----0-1-3-0-1---0------------| 
d|--------------3---1-3-0-1----| 
a|-3---------------------------| 
e|-----------------------------|

e|-----------------------------| 
b|-----------------------------| 
g|----0-1-3-0-1---0------------| 
d|-5------------3---1-3-0-1----| 
a|-3---------------------------| 
e|-----------------------------|

e|-----------------------------| 
b|-----------------------------| 
g|----0-1-3-0-1---0------------| 
d|-5------------3---1-3-0-1----| 
a|-3---------------------------| 
e|-----------------------------|

e|-----------------------------| 
b|-----------------------------| 
g|----0-1-3-0-1---0------------| 
d|-5------------3---1-3-0-1----| 
a|-3---------------------------| 
e|-----------------------------|
	Rocked silent

e|-----------------------------| 
b|-----------------------------| 
g|----0-1-3-0-1---0------------| 
d|-------------3---1-3-0-1-----| 
a|-3---------------------------| 
e|-----------------------------|
	in a soft lullaby

e|-----------------------------| 
b|-----------------------------| 
g|----0-1-3-0-1---0------------| 
d|-5------------3---1-3-0-1----| 
a|--3--------------------------| 
e|-----------------------------|
	Panic stirred me awakened

e|-----------------------------| 
b|-----------------------------| 
g|----0-1-3-0-1---0------------| 
d|-6------------3---1-3-0-1----| 
a|-3---------------------------| 
e|-----------------------------|
	by a ringing phone in time

e|-----------------------------| 
b|-----------------------------| 
g|----0-1-3-0-1---0------------| 
d|-5------------3---1-3-0-1----| 
a|-6---------------------------| 
e|-----------------------------|
	where and 

e|-----------------------------| 
b|-----------------------------| 
g|----0-1-3-0-1---0------------| 
d|-5------------3---1-3-0-1----| 
a|-8---------------------------| 
e|-----------------------------|
	when

e|-----------------------------| 
b|-----------------------------| 
g|----0-1-3-0-1---0------------| 
d|-5------------3---1-3-0-1----| 
a|-3---------------------------| 
e|-----------------------------|
	would I see her?


e|-----------------------------| 
b|-----------------------------| 
g|----0-1-3-0-1---0------------| 
d|-6------------3---1-3-0-1----| 
a|-3---------------------------| 
e|-----------------------------|


e|-----------------------------| 
b|-----------------------------| 
g|----0-1-3-0-1---0------------| 
d|-5------------3---1-3-0-1----| 
a|-6---------------------------| 
e|-----------------------------|
	crazy were the words

e|-----------------------------| 
b|-----------------------------| 
g|----0-1-3-0-1---0------------| 
d|-5------------3---1-3-0-1----| 
a|-8---------------------------| 
e|-----------------------------|
	that scribbled out your mouth

e|-----------------------------| 
b|-----------------------------| 
g|----0-1-3-0-1---0------------| 
d|-5------------3---1-3-0-1----| 
a|-3---------------------------| 
e|-----------------------------|
	I stuttered replacing

e|-----------------------------| 
b|-----------------------------| 
g|----0-1-3-0-1---0------------| 
d|-6------------3---1-3-0-1----| 
a|-3---------------------------| 
e|-----------------------------|
	your face to those words

e|-----------------------------| 
b|-----------------------------| 
g|----0-1-3-0-1---0------------| 
d|-5------------3---1-3-0-1----| 
a|-6---------------------------| 
e|-----------------------------|
	where and

e|-----------------------------| 
b|-----------------------------| 
g|----0-1-3-0-1---0------------| 
d|-5------------3---1-3-0-1----| 
a|-8---------------------------| 
e|-----------------------------|
	when

e|-----------------------------| 
b|-----------------------------| 
g|----0-1-3-0-1---0------------| 
d|-5------------3---1-3-0-1----| 
a|-3---------------------------| 
e|-----------------------------|
	would I kill her?

e|-----------------------------| 
b|-----------------------------| 
g|----0-1-3-0-1---0------------| 
d|-6------------3---1-3-0-1----| 
a|-3---------------------------| 
e|-----------------------------|
	

e|-----------------------------| 
b|-----------------------------| 
g|----0-1-3-0-1---0------------| 
d|-5------------3---1-3-0-1----| 
a|-6---------------------------| 
e|-----------------------------|
	I'll wish on this...

e|-----------------------------| 
b|-----------------------------| 
g|----0-1-3-0-1---0------------| 
d|-5------------3---1-3-0-1----| 
a|-8---------------------------| 
e|-----------------------------|
	I'll wish with this

e|-----------------------------| 
b|-----------------------------| 
g|----0-1-3-0-1---0------------| 
d|-5------------3---1-3-0-1----| 
a|-3---------------------------| 
e|-----------------------------|
	I

e|-----------------------------| 
b|-----------------------------| 
g|----0-1-3-0-1---0------------| 
d|-6------------3---1-3-0-1----| 
a|-3---------------------------| 
e|-----------------------------|
	 I'll wish...

e|-----------------------------| 
b|-----------------------------| 
g|----0-1-3-0-1---0------------| 
d|-5------------3---1-3-0-1----| 
a|-6---------------------------| 
e|-----------------------------|
	to the bitter end of my day
e|-----------------------------| 
b|-----------------------------| 
g|----0-1-3-0-1---0------------| 
d|-5------------3---1-3-0-1----| 
a|-8---------------------------| 
e|-----------------------------|
	well

e|-----------------------------| 
b|-----------------------------| 
g|----0-1-3-0-1---0------------| 
d|-5------------3---1-3-0-1----| 
a|-3---------------------------| 
e|-----------------------------|
	where were you

e|-----------------------------| 
b|-----------------------------| 
g|----0-1-3-0-1---0------------| 
d|-5------------3---1-3-0-1----| 
a|-3---------------------------| 
e|-----------------------------|


[ Tab from: http://www.guitartabs.cc/tabs/c/coheed_and_cambria/the_velorium_camper_ii_backend_of_forever_tab_ver_2.html ]
Pre-Chorus 
Both Guitars(4x) 
e|-------------------------------------------------------------| 
b|-------------------------------------------------------------| 
g|-555555555555555555555555--------------------4444-4-2222-2---| 
d|-555555555555555555555555-444444444444444444-4444-4-2222-2---| 
a|-333333333333333333333333-444444444444444444-2222-2-0000-0---| 
e|--------------------------222222222222222222-----------------| 
So you had your turn  and you made it work now I'm the laughing stock of your joke
As crazy as it may seem I cried for you when you
Told me to date all of the things that made you end up in my life
I'll believe anything I have no luck with girls.
 

Chorus 
Both Guitars (4x) 
e|--------------------------------------------| 
b|--------------------------------------------| 
g|-----------99999999-------------------------| 
d|-66666666--99999999--44444444--999999999999-| 
a|-66666666--77777777--44444444--999999999999-| 
e|-44444444-(00000000)-22222222--777777777777-| 
	I overheard that you were unhappy too
	Misleading trust into a relationship that makes no sense over and out conneticut
	But you had your back turned there as you faded away, at the end of my day I found out
	You weren't worth what I thought of you, what I thought of you.

Post Chorus 
Guitar 1 
e|----------------------------| 
b|----------------------------| 
g|---0-1-3-0-1---0------------| 
d|-------------3---1-3-0-1----| 
a|-3--------------------------| 
e|----------------------------| 
. . . . . . . . . . . . 
e|----------------------------| 
b|----------------------------| 
g|---0-1-3-0-1---0------------| 
d|--------------3---1-0-------| 
a|-3---------------------3----| 
e|----------------------------| 
. . . . . . . 

Both Guitars 
e|----------------------------| 
b|----------------------------| 
g|---0-1-3-0-1---0------------| 
d|-------------3---1-3-0-1----| 
a|-3--------------------------| 
e|----------------------------| 
-
e|----------------------------| 
b|----------------------------| 
g|---0-1-3-0-1---0------------| 
d|-------------3---1-0--------| 
a|-3---------------------3----| 
e|----------------------------| 

e|----------------------------| 
b|----------------------------| 
g|---0-1-3-0-1---0------------| 
d|-------------3---1-3-0-1----| 
a|-3--------------------------| 
e|----------------------------| 

e|----------------------------| 
b|----------------------------| 
g|---0-1-3~---0-1-3~----------| 
d|----------------------------| 
a|-3--------3-----------------| 
e|----------------------------| 


Play Verse 
e|-----------------------------| 
b|-----------------------------| 
g|----0-1-3-0-1---0------------| 
d|-5------------3---1-3-0-1----| 
a|-3---------------------------| 
e|-----------------------------|
	Write this down
e|-----------------------------| 
b|-----------------------------| 
g|----0-1-3-0-1---0------------| 
d|--------------3---1-3-0-1----| 
a|-3---------------------------| 
e|-----------------------------|
	in your diary reviews

e|-----------------------------| 
b|-----------------------------| 
g|----0-1-3-0-1---0------------| 
d|-5------------3---1-3-0-1----| 
a|-3---------------------------| 
e|-----------------------------|
	Can we make plans

e|-----------------------------| 
b|-----------------------------| 
g|----0-1-3-0-1---0------------| 
d|-6------------3---1-3-0-1----| 
a|-3---------------------------| 
e|-----------------------------|
	can I just get through to you

e|-----------------------------| 
b|-----------------------------| 
g|----0-1-3-0-1---0------------| 
d|-5------------3---1-3-0-1----| 
a|-6---------------------------| 
e|-----------------------------|
	is this weird?

e|-----------------------------| 
b|-----------------------------| 
g|----0-1-3-0-1---0------------| 
d|-5------------3---1-3-0-1----| 
a|-8---------------------------| 
e|-----------------------------|
	

e|-----------------------------| 
b|-----------------------------| 
g|----0-1-3-0-1---0------------| 
d|-5------------3---1-3-0-1----| 
a|-3---------------------------| 
e|-----------------------------|
	Do I scare

e|-----------------------------| 
b|-----------------------------| 
g|----0-1-3-0-1---0------------| 
d|-6------------3---1-3-0-1----| 
a|-3---------------------------| 
e|-----------------------------|
	her?

e|-----------------------------| 
b|-----------------------------| 
g|----0-1-3-0-1---0------------| 
d|-5------------3---1-3-0-1----| 
a|-6---------------------------| 
e|-----------------------------|
I wish  on this

e|-----------------------------| 
b|-----------------------------| 
g|----0-1-3-0-1---0------------| 
d|-5------------3---1-3-0-1----| 
a|-8---------------------------| 
e|-----------------------------|
	I wish with this

e|-----------------------------| 
b|-----------------------------| 
g|----0-1-3-0-1---0------------| 
d|-5------------3---1-3-0-1----| 
a|-3---------------------------| 
e|-----------------------------|
	I 

e|-----------------------------| 
b|-----------------------------| 
g|----0-1-3-0-1---0------------| 
d|-6------------3---1-3-0-1----| 
a|-3---------------------------| 
e|-----------------------------|
	I'll wish

e|-----------------------------| 
b|-----------------------------| 
g|----0-1-3-0-1---0------------| 
d|-5------------3---1-3-0-1----| 
a|-6---------------------------| 
e|-----------------------------|
	That you could share the love you'd shared

e|-----------------------------| 
b|-----------------------------| 
g|----0-1-3-0-1---0------------| 
d|-5------------3---1-3-0-1----| 
a|-8---------------------------| 
e|-----------------------------|
	with others

e|-----------------------------| 
b|-----------------------------| 
g|----0-1-3-0-1---0------------| 
d|-5------------3---1-3-0-1----| 
a|-3---------------------------| 
e|-----------------------------|
	with me

e|-----------------------------| 
b|-----------------------------| 
g|----0-1-3-0-1---0------------| 
d|-5------------3---1-3-0-1----| 
a|-3---------------------------| 
e|-----------------------------|


Play Pre-Chorus 

Play Chorus 

Outro 
Both Guitars(8x)
e|---------------------------------------------| 
b----------------------------------------------| 
g|-----------99999999--------------------------| 
d|-99999999--99999999--44444444--66-66--22--22-| 
a|-99999999--77777777--44444444--66-66--22--22-| 
e|-77777777-(00000000)-22222222--44-44--00--00-|
	vocals on 3rd time: 
	But this isn't love so forever let it go... Forever will it burn
	This isn't love there on the back end forever I wish I would never 
	Hurt.... ("I wish I would never hurt again" repeated till end)
-Jessica-
=====================================================================
Comments