Coheed And Cambria - The Velorium Camper Ii Backend Of Forever Chords & Tabs

 

The Velorium Camper Ii Backend Of Forever Chords & Tabs

Coheed And Cambria Chords & Tabs

Version: 1 Type: Tab 0 ratings
1 star 2 stars 3 stars 4 stars 5 stars
comments

The Velorium Camper Ii Backend Of Forever Tab

   
--------------------------------------------------------------------------
    THE CAMPER VELOURIUM II: BACKEND OF FOREVER - Coheed and Cambria
--------------------------------------------------------------------------

Tabbed by: joecool71
Email: mattconnellan@yahoo.com

Tuning: Standard

Seventh in my Coheed series, I really don't have much to say about this one. 

Intro
e|-------------------------|--|
B|-------------------------|--|
G|---0-1-3-0-1---0---------|--|
D|-------------3---1-3-0-1-|X4|
A|-3-----------------------|--|
E|-------------------------|--|
   . . . . . . . . . . . .
Intro lead
e|-------------------|
B|-------------------|
G|-------------------|
D|-5-----5-5-----5-5-|
A|-3-----3-3-----3-3-|
E|-------------------|

Verse
e|-------------------------|--|-------------------------|--|-------------------------|--|
B|-------------------------|--|-------------------------|--|-------------------------|--|
G|---0-1-3-0-1---0---------|--|---3-4-6-3-4---3---------|--|---0-1-3-0-1---0---------|--|
D|-------------3---1-3-0-1-|X4|-------------6---4-6-3-4-|X2|-------------3---1-3-0-1-|X2|
A|-3-----------------------|--|-6-----------------------|--|-3-----------------------|--|
E|-------------------------|--|-------------------------|--|-------------------------|--|
   . . . . . . . . . . . .      . . . . . . . . . . . .      . . . . . . . . . . . . 
Verse lead (1st part is played only once at the beginning of each verse, replacing 1st 2 chords)
e|---|-------------------------------------------------------------------------------|
B|---|-------------------------------------------------------------------------------|
G|---|-------------------------------------------------------------------------------|
D|-3-|-5-5---5---8-8---8---5-5---5---6-6---6---8-8---8---9-9---9---5-5---5---6-6---6-|
A|-1-|-6-6---6---5-5---5---3-3---3---5-5---5---6-6---6---8-8---8---3-3---3---5-5---5-|
E|---|-------------------------------------------------------------------------------|

Prechorus (chords)
e|------------|
B|------------|
G|------------|
D|-5------4---|
A|-3---4--2-2-|
E|-----2----0-|
   .   .  . .
Chorus (chords)
e|---------------|--|
B|---------------|--|
G|-----9---------|--|
D|-6---9---4---2-|X4|
A|-6---7---4---2-|--|
E|-4-------2---0-|--|

Chorus lead
e|-------------------------------------4---4---4---4--7--7--7-----|-->
B|-7p4-4---7p4-4---5p4-4---5p4-4---------------------4--4--4-4-7p4|-->
G|----7-7p4---7-7p4---6-6p4---6-6p4-4h6-4h6-4h6-4h6-6--6--6-------|-->
D|----------------------------------------------------------------|X3>
A|----------------------------------------------------------------|-->
E|----------------------------------------------------------------|-->
[ Tab from: http://www.guitartabs.cc/tabs/c/coheed_and_cambria/the_velorium_camper_ii_backend_of_forever_tab.html ]
e|-------------------------------------4---4---4---4--7--7--7--7-|
B|-7p4-4---7p4-4---4h5p4-4-4h5p4-4-------------------4--4--4--4--|
G|----7-7p4---7-7p4-----6-4-----6-4-4h6-4h6-4h6-4h6-6--6--6--6---|
D|---------------------------------------------------------------|
A|---------------------------------------------------------------|
E|---------------------------------------------------------------|

Fill
e|-----------------------------------------------------------------------------------------|
B|-----------------------------------------------------------------------------------------|
G|---0-1-3-0-1---0-----------0-1-3-0-1---0----------0-1-3-0-1---0-----------0-1-3----0-1-3-|
D|-------------3---1-3-0-1-------------3---1-0----------------3---1-3-0-1------------------|
A|-3-----------------------3-------------------3--3-----------------------3--------3-------|
E|-----------------------------------------------------------------------------------------|

Outro
e|---------------------------------------------------|
B|---------------------------------------------------|
G|-------------9999999999999-------------------99-99-|
D|-9999999999999999999999999444444444444-66-66-99-99-|
A|-9999999999997777777777777444444444444-66-66-77-77-|
E|-777777777777-------------222222222222-44-44-------|

Outro lead
e|-------7-|
B|-4-------|
G|---------|
D|---------|
A|---------|
E|---------|

LYRICS AND RIFF PLACEMENT

[INTRO W/ LEAD]
[VERSE W/ LEAD] X3
Rocked silent in a soft lullaby
Panic stirred me awakened by a ringing phone in time
Where and when would I see her?
Crazy were the words that scribbled out your mouth
I stuttered replacing your face to those words
Where and when would I kill her?
I'll wish on this, I'll wish with this
I wish... To the bitter end of my day
Where were you?
[PRECHORUS] X4
So you had your turn and you made it work
Now I'm the laughing stock of your joke
Crazy as it may seem I cried for you when you
Told me to date all of the things that made you end up in my life
And I'll believe anything I have no luck with girls
{CHORUS W/ LEAD]
I overheard that you were unhappy too
Misleading trust into a relationship that makes no sense
Over and out Connecticut
But you had your back turned as you faded away
At the end of my day I found out
You weren't worth what I thought of you
[FILL]
[VERSE] X2
Write this down in that diary you abuse
Can we make plans can I just get through to you
Is this weird... Do I scare her?
I'll wish on this, I'll wish with this
I wish... That you could share the love you'd shared with others with me
[PRECHORUS] X4
So you had your turn and you made it work
Now I'm the laughing stock of your joke
Crazy as it may seem I cried for you when you
Told me to date all of the things that made you end up in my life
And I'll believe anything I have no luck with girls
{CHORUS W/ LEAD]
I overheard that you were unhappy too
Misleading trust into a relationship that makes no sense
Over and out Connecticut
But you had your back turned as you faded away
At the end of my day I found out
You weren't worth what I thought of you
[OUTRO W/ LEAD] X6
This isn't love so forever let it go... Forever will it burn
This isn't love there on the backend of forever I wish I would never hurt again

| /  slide up
| \  slide down
| h  hammer-on
| p  pull-off
| ~  vibrato
| +  harmonic
| x  Mute note
===============================================================================
Comments