Coheed And Cambria - The Suffering Chords & Tabs

 

The Suffering Chords & Tabs

Coheed And Cambria Chords & Tabs

Version: 1 Type: Tab 6 ratings
1 star 2 stars 3 stars 4 stars 5 stars
comments

The Suffering Tab




       This song isnt even on this webs site so this is the frist time its been tab out on this
       web site so enjoy

[ Tab from: http://www.guitartabs.cc/tabs/c/coheed_and_cambria/the_suffering_tab.html ]
Palm Muteing/.
intro
-------------------------------------------------------------------------------------------
-------------------------------------------------------------------------------------------
-------------------------------------------------------------------------------------------
------5-2-0-0-0-5-2---7--9--------------------------------------------------------------------------
--10------------------5--7--2-2---------------5--7--7-7-7-7-7-7--5----------------------------------------
--8-------------------------0-0--0-0-0--0-0---3--5--5-5-5-5-5-5--3----------------------------------------
      . . . . . . .         . .  . . .  . .         . . . . . .  

-------------------------------------------------------------------------------------------
-------------------------------------------------------------------------------------------
-------------------------------------------------------------------------------------------
------------10-10--10-10--10-10--10-10--12-------------------------------------------------------------------
------------8--8---7--8---7--8---7--8---10-----------------------------------------------------------
-0-3-5-3-0--------------------------------------------------------------------------------------
 . . . . .         .  .          .  . 
Comments