Coheed And Cambria - The Light And The Glass Chords & Tabs

 

The Light And The Glass Chords & Tabs

Coheed And Cambria Chords & Tabs

Version: 3 Type: Tab 0 ratings
1 star 2 stars 3 stars 4 stars 5 stars
comments

The Light And The Glass Tab

Coheed And Cambria 
Track 11 : The Light And The Glass
In Keeping Secrets Of Silent Earth : 3


|-2-----2---------------------|------|-------|
|---3-----3-------------------|------|-------|
|-----2-----2-----------------|------|-------|
|-----------------4-5-7-5-4p0-|-----7|-----0-|
|-------------4h5-------------|---5--|---5---|
|-----------------------------|-3----|-3-----|
| 3x |

|---------------------------| |-5-----5-----------------|
|-------0-------------0-----| |-------------------------|
|-2-------2-------2-0-----0-| |---0-----0---------------|
|---0-------0-2h4-------4---| |-----0-----0-----0-----0-|
|-2---2---------------------| |-------------2-----4-----|
|---------------------------| |---------------5-----5---|

|-5----5-----|
|---5~---5---|
|------------|
|----------0-|
|------------|
|------------|
| 2x |


Pre Chorus - Claudio
|---------|
|---------|
|---------|
|---------|
|-7-----5-|
|-5-----3-| Repeat chord as needed.

Pre Chorus - Travis
|-------0-----------0-----------0----|-----------|
|---2-------2---2-----0-----3-------3|-----------|
|-----2---4-------2-----2-----0---0--|-2p0-------|
|------------------------------------|-----4-2-0-|
|-0-----------0----------------------|-----------|
|-------------------------3----------|-----------|
| 2x |

Chorus - Both Guitars

|---------------------|
|---------------------|
|---------------------|
|-4-----4-----2-------|
|-2-----0-----0-----5-|
|-------------------3-| Repeat chord as needed.
Pm...................

Bridge - Claudio

|---------------------|
|---------------------|
|---------------------|
|-4-------------------|
|-2-----7-----5-----5-|
|-------5-----3-----3-|

Bridge - Travis

|-----------------------| |-----------|
|-----------------------| |------7hb~-|
|-4----6-----7--7--7--7-| |-4-2-------|
|-x----x-----x--x--x--x-| |-----------|
|-2----4-----5--5--5--5-| |-----------|
|-----------------------| |-----------|
2nd time end on this instead of the D octaves.

Pre Interlude - Claudio

|-------------------------------------------|
|-------------------------------------------|
|-------------------------------------------|
|-9-9--9-9---7-7--7-7---5-5--5-5---5-5--5-5-|
|-7-7--7-7---5-5--5-5---3-3--3-3---3-3--3-3-|
|-------------------------------------------|

Pre Interlude - Travis

|--------------------------------------------------------|
|--------------------------------------------------------|
|-12-12--12-12--14-14--14-14--12-12--12-12--12-12--12-12-|
|--x--x---x--x---x--x---x--x---x--x---x--x---x--x---x--x-|
|-10-10--10-10--12-12--12-12--10-10--10-10--10-10--10-10-|
|--------------------------------------------------------|

Interlude - Claudio

|---------|
|---------|
|---------|
|-------5-|
|-7-----3-|
|-5-------| Repeat as needed.

Interlude - Travis

|----------|
|----------|
|-------5~-|
|-----5----|
|-0h3------|
|----------| He plays this at the end.

"liar" part - Claudio

|-----0-| |---3---|
|---7---| |-----3-|
|-7-----| |-0-----|
|-------| |-------|
|-------| |-------|
|-------|8x |-------|8x (Play those two riffs multiple times.)

|---3---|
|-----3-|
|-0-----|
|-------|
|-------|
|-------|6x (this is right before the chorus again.)

"liar" part - Travis (Played slower than Claudio's part.)

|----0----|
|-------7-|
|-7-------|
|---------|
|---------|
|---------|3x

|-----7\5-----|
|-3/5-----7/8-|
|-------------|
|-------------|
|-------------|
|-------------|

|-10---10---10------10-----10---|
|----8----8----8--8----8-7----7-|
|-------------------------------|
|-------------------------------|
|-------------------------------|
|-------------------------------|


|-10---10---10------10-------------|
|----8----8----8--8----8-----3-2---|
|------------------------2-4-----2-|
|----------------------------------|
|----------------------------------|
|----------------------------------|

The last part in this chorus is

|--------------------------------------------------|
|--------------------------------------------------|
|--------------------------------------------------|
|-444444444-----4444444444-----7-7-----------------|
|-222222222-----0000000000-----5-5-----5-5---------|
|--------------------------------------3-3--0/15\0-|

Interlude #2 - Claudio

|-------------| |-------------|
|-------------| |-------------|
|-------------| |- -----------|
|-------------| |-4-4-4-4-4-4-|
|-4-4-0-4-5-0-| |-2-2-2-2-2-2-|
|-2-2---------|3x |-------------|

Interlude #2 - Travis

|--------------------|
|-10-9---------------|
|------11---9-11/13~-|
|--------------------|
|--------------------|
|--------------------|

|-------------------------------|
|-10-9--------------------------|
|------11---9-11/13-------------|
|-------------------11~-------9-|
|-------------------------------|
|-------------------------------|

|----------------------|
|-10- 
[ Tab from: http://www.guitartabs.cc/tabs/c/coheed_and_cambria/the_light_and_the_glass_tab_ver_3.html ]
|----------------------|
|-10-9-----------------|
|------11---9/13----9~-|
|----------------------|
|----------------------|
|----------------------|

Breakdown - Both guitars

|-----------------------------------------------------------------------|
|-----------------------------------------------------------------------|
|-----------------------------------------------------------------------|
|-2--2-2-2--3--3-3-3--5--5-5-5--7--7-7-7--2--2-2-2--3--3-3-3------------|
|-0--0-0-0--1--1-1-1--3--3-3-3--5--5-5-5--0--0-0-0--1--1-1-1--555555555-|
|-------------------------------------------------------------333333333-|
pm . . . . . . . . . . . . . . . . . .

Interlude #3 - Claudio

|------------------------------------------------
|------------------------------------------------
|-1212121212121212-////////-99999999999-///-12---
|--x-x-x-x-x-x-x-x-xxxxxxxx-xxxxxxxxxxx-xxx--x-0-
|-1010101010101010-99999999-77777777777-999-10-0-
|------------------------------------------------ those "/'s" are 11's.

|---------------------|
|---------------------|
|-------------5-------|
|-5-----4-----5-----4-|
|-3-----2-----3-----2-|
|-------------3-------| Repeat chord as needed.

|---------------|
|---------------|
|---------------|
|-9-----7-----5-|
|-7-----5-----3-|
|-0-------------|Repeeat chord as needed.

|-----------------------------------------|
|-----------------------------------------|
|-----------------------------------------|
|---------------------------------7-----5-|
|-2-------2-------2-------2-------5-----3-|
|-0-0-0-0-0-0-0-0-0-0-0-0-0-0-0-0---------| just strum the D5 and C5.
pm . . . . . . . . . . . .
Interlude #3 - Travis

|----12---------12-| |----12----------------------------------------|
|-12----12-15^-----| |-12----12-15-12----12-------------------------|
|------------------| |----------------14----12-14-11-12----11-------|
|------------------| |----------------------------------14----12-14-|
|------------------| |----------------------------------------------|
|------------------|2x |----------------------------------------------|

|----------------12~---------|
|-13~----12~-------------15~-|
|----------------------------|
|----------------------------|
|----------------------------|
|----------------------------|

|----------------------------------------------------|
|-13------12h13-12---------12----------15fb-----15fb-|
|-----------------------------14-12------------------|
|----------------------------------------------------|
|----------------------------------------------------|
|----------------------------------------------------|

|-3p2------3p2--------3p2--------3p2-|
|------------------------------------|
|------------------------------------|
|------------------------------------|
|------------------------------------|
|------------------------------------|

|------------------------|
|------------------------|
|---------------8-9-8hb~-|
|--------7-9-10----------|
|-7-9-10-----------------|
|------------------------|


Another thing they added during Interlude #3 over both guitars.
listen to the cd to see how it sounds.
|-14^(.5)-----14-12-14-14^-14^-14^-14^-14^-12-14^-|
|-------------------------------------------------|
|-------------------------------------------------|
|-------------------------------------------------|
|-------------------------------------------------|
|-------------------------------------------------|


Solo/Outro - Travis (Claudio just keeps playing his interlude part.)

|----------------------------------|-------------------------------|
|----------------------------------|-----------------------7-------|
|-8h9-8----8h9-8h9---------8h9-8h9-|-8h9-8----8h9-8----8h9-9^---9^-|
|-------10-------------------------|-------10-------10-------------|
|----------------------------------|-------------------------------|
|----------------------------------|-------------------------------|

|--------------------------------------------------------------------|
|------------------------------------------------------------------7-|
|-8hb---8hb-----------------8hb-----8hb----------8-9-8----8-9-11-9---|
|--------------9-10-9---7-----------------9-10-9-------10------------|
|--------------------------------------------------------------------|
|--------------------------------------------------------------------|

|--------7-8-9-8-7-----------------------|
|-7-8-10-----------10-8-7----------10^---|
|----------------------------8-9-8-------|
|-------------------------10-------------|
|----------------------------------------|
|----------------------------------------|

|-----------------------------------------------------|
|-10^-10^--10-8-10^--10-8-10^-10^--10-8-10^-10^--10-8-|
|-----------------------------------------------------|
|-----------------------------------------------------|
|-----------------------------------------------------|
|-----------------------------------------------------|
Comments