Coheed And Cambria - The Light And The Glass Chords & Tabs

 

The Light And The Glass Chords & Tabs

Coheed And Cambria Chords & Tabs

Version: 2 Type: Tab 0 ratings
1 star 2 stars 3 stars 4 stars 5 stars
comments

The Light And The Glass Tab

                The Light and the Glass


                                        Coheed and Cambria Tabbed
Acoustic Version

This is an awesome song to play and is so much fun. I figured this out from the
Starland DVD. This isnt exactly how claudio plays it (the intro is definatly not
how he plays it) but sounds just the same. The intro is fingure picked and so is
the liar part.

Key:
pm---- = palm mute
~= tremelo
x#
* = reapet x# of times
*
FP = finger pick
P = pick

   FP  "Slowly the pen..."
E||--2--------------2----|-----------------------|-----------------------|
B||-------3--------------|--3--------------------|-----------------------|
G||------------2---------|-------2---------------|-----------------------|
D||--0--------------0----|------------------4----|--5----7----5----4--0--|
A||----------------------|------------4--5-------|-----------------------|
E||----------------------|-----------------------|-----------------------|

----------------------|----------------------|-----------------------|
----------------------|----------------------|-----------------------|
----------------------|----------------------|-----------------------|
------------7---------|-------7--------------|--7--------------7-----|
-------5--------------|--5--------------5----|------------5-------0--|
--3--------------3----|------------3---------|-------3---------------|

----------------------|-----------------------|----------------------|
-----------------0----|-----------------------|-------0--------------|
--2-------------------|--2---------------2----|--0--------------0----|
-------0--------------|-------0----2--4-------|------------4---------|
------------2---------|-----------------------|----------------------|
----------------------|-----------------------|----------------------|

--5--------------5----|----------------------|----------------------|
----------------------|----------------------|----------------------|
-------0--------------|--0-------------------|----------------------|
--0---------0----0----|-------0--------------|--0--------------0----|
----------------------|------------2----0----|-------4----0---------|
----------------------|----------------------|----------------------|


                                                                     3x
--5--------------5----|------------5---------|-------5---------------||
-------5--------------|--5--------------5----|------------5----------||
----------------------|----------------------|----------------------*||
--0---------0----0----|-------0----0---------|--0----0---------0----*||
----------------------|----------------------|-----------------------||
----------------------|----------------------|-----------------------||

"But you, you left the..."
 P
---0----0----0----0----|--0----0----0----0----|--0----0----0----0----|
---0----0----0----0----|--0----0----0----0----|--0----0----0----0----|
*--2----2----2----2----|--2----2----2----2----|--2----2----2----2----|
*--2----2----2----2----|--2----2----2----2----|--2----2----2----2----|
---0----0----0----0----|--0----0----0----0----|--0----0----0----0----|
---0----0----0----0----|--0----0----0----0----|--0----0----0----0----|

--3----3----3----3----|--3----3----3----3----|--3----3----3----3-----||
--3----3----3----3----|--3----3----3----3----|--3----3----3----3-----||
--0----0----0----0----|--0----0----0----0----|--0----0----0----0----*||
--0----0----0----0----|--0----0----0----0----|--0----0----0----0----*||
--2----2----2----2----|--2----2----2----2----|--2----2----2----2-----||
--3----3----3----3----|--3----3----3----3----|--3----3----3----3-----||


 "Ignoring the words...."
---------------------------|----------------------------|
---------------------------|----------------------------|
*--------------------------|----------------------------|
*--4--4--4--4--4--4--4--4--|--4--4--4--4----------------|
---2--2--2--2--2--2--0--0--|--0--0--0--0--4--4--4--4----|
---------------------------|--------------5--5--5--5----|
  pm----------------------------------------------------|

                           3x   "But you couldn't last..."
---------------------------||---0----0----0----0----|--0----0----0----0------|
---------------------------||---0----0----0----0----|--0----0----0----0------|
--------------------------*||*--4----4----4----4----|--4----4----2----2------|
--------------------------*||*--4----4----4----4----|--4----4----2----2------|
--4--4--5--5--5--5--5--5---||---2----2----2----2----|--2----2----0----0------|
--5--5--3--3--3--3--3--3---||---0----0----0----0----|--0----0----0----0------|
-----------------------------------------------------------------------------|


--0----0----0----0----|--3----3----3----3----|--3----3----3----3----|
--0----0----0----0----|--3----3----3----3----|--3----3----3----3----|
--2----2----2----2----|--0----0----0----0----|--0----0----0----0----|
--2----2----2----2----|--0----0----0----0----|--0----0----0----0----|
--0----0----0----0----|--2----2----2----2----|--2----2----2----2----|
--0----0----0----0----|--3----3----3----3----|--3----3----3----3----|


                           "Miss Her...."
--3----3----3----3-----||--------------------------------|
--3----3----3----3-----||--------------------------------|
--0----0----0----0----*||*-------------------------------|
--0----0----0----0----*||*--9---9-----9---9---0----------|
--2----2----2----2-----||---10--10----10--10--0--9---9---|
--3----3----3----3-----||---12--12----12--12-----10--10--|


                                                           3x
-----------------------------|-----------------------------||
-----------------------------|-----------------------------||
-----------------------------|----------------------------*||
---------------10--10----10--|--10----10--10----10--10----*||
----9---9---0--10--10----10--|--10----10--10----10--10-----||
----10--10--0--8---8-----8---|--8-----8---8-----8---8------||


   "But you had.."
---------------------------|----------------------------|
---------------------------|----------------------------|
*--2--2--2--2--2--2--2--2--|--2--2--2--2--2--2--2--2----|
*--2--2--2--2--2--2--2--2--|--2--2--2--2--2--2--2--2----|
---0--0--0--0--0--0--0--0--|--0--0--0--0--0--0--0--0----|
---------------------------|----------------------------|
  pm----------------------------------------------------|


--------------------------|---------------------------||-----------------------|
--------------------------|---------------------------||-----------------------|
--5--5--5--5--5--5--5--5--|--5--5--5--5--5--5--5--5--*||-----------------------|
--5--5--5--5--5--5--5--5--|--5--5--5--5--5--5--5--5--*||--------5--------------|
--3--3--3--3--3--3--3--3--|--3--3--3--3--3--3--3--3---||--3--5-----------------|
--------------------------|---------------------------||-----------------------|
-------------------------------------------------------------------------------|

    "Liar, liar, liar..."
|---------------------------|--------------------------|
|---7--------7--------7-----|-----7--------7--------7--|
|*-----9--------9--------9--|--------9--------9--------|
|*--0-----0--0-----0--0-----|--0--0-----0--0-----0--0--|
|---------------------------|--------------------------|
|---------------------------|--------------------------|

--------------------------|--------------------------|
--------7--------7--------|--8--------8--------8-----|
--9--------9--------9-----|-----7--------7--------7--|
-----0--0-----0--0-----0--|--0-----0--0-----0--0-----|
--------------------------|--------------------------|
--------------------------|--------------------------|


                                                      2x
--------------------------|---------------------------||
-----8--------8--------8--|--------8--------8---------||
--------7--------7--------|--7--------7--------7-----*||
--0--0-----0--0-----0--0--|-----0--0-----0--0-----0--*||
--------------------------|---------------------------||
--------------------------|---------------------------||

--------------------------|--------------------------|
--7--------7--------7-----|-----7--------7--------7--|
-----9--------9--------9--|--------9--------9--------|
--0-----0--0-----0--0-----|--0--0-----0--0-----0--0--|
--------------------------|--------------------------|
--------------------------|--------------------------|
[ Tab from: http://www.guitartabs.cc/tabs/c/coheed_and_cambria/the_light_and_the_glass_tab_ver_2.html ]
--------------------------|--------------------------|
--------7--------7--------|--8--------8--------8-----|
--9--------9--------9-----|-----7--------7--------7--|
-----0--0-----0--0-----0--|--0-----0--0-----0--0-----|
--------------------------|--------------------------|
--------------------------|--------------------------|

--------------------------|-------------------------|
-----8--------8--------8--|-------------------------|
--------7--------7--------|--7-----------7--6-------|
--0--0-----0--0-----0--0--|-----0--7--9--------7----|
--------------------------|-------------------------|
--------------------------|-------------------------|


   "Ignoring the words.."
    P
|---------------------------|----------------------------|
|---------------------------|----------------------------|
|*--------------------------|----------------------------|
|*--4--4--4--4--4--4--4--4--|--4--4--4--4----------------|
|---2--2--2--2--2--2--0--0--|--0--0--0--0--4--4--4--4----|
|---------------------------|--------------5--5--5--5----|
   pm----------------------------------------------------|

                           2x
---------------------------||----------------------------|
---------------------------||----------------------------|
--------------------------*||----------------------------|
--------------------------*||--4--4--4--4--4--4--4--4----|
--4--4--5--5--5--5--5--5---||--2--2--2--2--2--2--0--0----|
--5--5--3--3--3--3--3--3---||----------------------------|
---------------------------------------------------------|

                          "WHILE!!!!!"        "But you couldn't last.."
--------------0--0------|------------------||---0----0----0----0------|
--------------0--0------|------------------||---0----0----0----0------|
--------------2--2------|------------------||*--4----4----4----4------|
--4--4--4--4--2--2------|------------------||*--4----4----4----4------|
--0--0--0--0--0--0------|------------------||---2----2----2----2------|
--------------0--0------|------------------||---0----0----0----0------|
----------------------------------------------------------------------|


--0----0----0----0----|--0----0----0----0----|--3----3----3----3----|
--0----0----0----0----|--0----0----0----0----|--3----3----3----3----|
--4----4----2----2----|--2----2----2----2----|--0----0----0----0----|
--4----4----2----2----|--2----2----2----2----|--0----0----0----0----|
--2----2----0----0----|--0----0----0----0----|--2----2----2----2----|
--0----0----0----0----|--0----0----0----0----|--3----3----3----3----|

--3----3----3----3----|--3----3----3----3-----||
--3----3----3----3----|--3----3----3----3-----||
--0----0----0----0----|--0----0----0----0----*||
--0----0----0----0----|--0----0----0----0----*||
--2----2----2----2----|--2----2----2----2-----||
--3----3----3----3----|--3----3----3----3-----||


  "Miss her..."
--------------------------------|-----------------------------|
--------------------------------|-----------------------------|
*-------------------------------|-----------------------------|
*--9---9-----9---9---0----------|---------------10--10----10--|
---10--10----10--10--0--9---9---|----9---9---0--10--10----10--|
---12--12----12--12-----10--10--|----10--10--0--8---8-----8---|


                             3x  "If you get put..."
-----------------------------||---------------------------|
-----------------------------||---------------------------|
----------------------------*||*--------------------------|
--10----10--10----10--10----*||*--------------------------|
--10----10--10----10--10-----||---4--4--0--4--5--0--4--4--|
--8-----8---8-----8---8------||---2--2--------------2--2--|


                                                      3x
--------------------------|---------------------------||
--------------------------|---------------------------||
--------------------------|--------------------------*||
--------------------------|--------4--4--4--4--4--4--*||
--0--4--5--0--4--4--0--4--|--5--0--2--2--2--2--2--2---||
--------------2--2--------|---------------------------||


   "I've been cautious.."
---------------------------|--------------------------|
---------------------------|--------------------------|
*--------------------------|--------------------------|
*--2--2--2--2--3--3--3--3--|--5--5--5--5--3--3--3--3--|
---0--0--0--0--1--1--1--1--|--3--3--3--3--1--1--1--1--|
---------------------------|--------------------------|

--------------------------|---------------------------||
--------------------------|---------------------------||
--------------------------|--------------------------*||
--2--2--2--2--3--3--3--3--|--------------------------*||
--0--0--0--0--1--1--1--1--|--5--5--5--5--5--5--5--5---||
--------------------------|--3--3--3--3--3--3--3--3---||


   "Your fathers dead he past.."
-------------------------------------|------------------------------------|
-------------------------------------|------------------------------------|
*--12--12--12--12--12--12--12--12-12-|--11--11--11--11--11--11--11--11-11-|
*--x---x---x---x---x---x---x---x--x--|--x---x---x---x---x---x---x---x--x--|
---10--10--10--10--10--10--10--10-10-|--9---9---9---9---9---9---9---9--9--|
-------------------------------------|------------------------------------|

-----------------------0--|-------------------------------|
-----------------------0--|-------------------------------|
--9--9--9--9--9--9--9--0--|--9--9--9--11--11--11--12--12--|
--x--x--x--x--x--x--x--0--|--x--x--x--x---x---x---x---x---|
--7--7--7--7--7--7--7--0--|--7--7--7--9---9---9---10--10--|
-----------------------0--|-------------------------------|

----------------------------------|----------------------------------|
----------------------------------|----------------------------------|
----------------------------------|----------------------------------|
--10--10--10--10--10--10--10--10--|--10--10--10--10--10--10--10--10--|
--10--10--10--10--10--10--10--10--|--10--10--10--10--10--10--10--10--|
--8---8---8---8---8---8---8---8---|--8---8---8---8---8---8---8---8---|


                                                                      3x
----------------------------------|-----------------------------------||
----------------------------------|-----------------------------------||
----------------------------------|----------------------------------*||
--10--10--10--10--10--10--10--10--|--10--10--10--10--10--10--10--10--*||
--10--10--10--10--10--10--10--10--|--10--10--10--10--10--10--10--10---||
--8---8---8---8---8---8---8---8---|--8---8---8---8---8---8---8---8----||


   "Pray for us all..."
---------------------------|--------------------------|
---------------------------|--------------------------|
*--9--9--9--9--9--9--9--9--|--9--9--9--9--9--9--9--9--|
*--9--9--9--9--9--9--9--9--|--9--9--9--9--9--9--9--9--|
---7--7--7--7--7--7--7--7--|--7--7--7--7--7--7--7--7--|
---------------------------|--------------------------|

----------------------------------|----------------------------------|
----------------------------------|----------------------------------|
----------------------------------|----------------------------------|
--12--12--12--12--12--12--12--12--|--12--12--12--12--14--14--14--14--|
--12--12--12--12--12--12--12--12--|--12--12--12--12/-14--14--14--14--|
--10--10--10--10--10--10--10--10--|--10--10--10--10--12--12--12--12--|

----------------------------------|----------------------------------|
----------------------------------|----------------------------------|
----------------------------------|----------------------------------|
--10--10--10--10--10--10--10--10--|--10--10--10--10--10--10--10--10--|
--10--10--10--10--10--10--10--10--|--10--10--10--10--10--10--10--10--|
--8---8---8---8---8---8---8---8---|--8---8---8---8---8---8---8---8---|


  !third time skip these two bars and play the last note below!
----------------------------------|-----------------------------------||
----------------------------------|-----------------------------------||
----------------------------------|----------------------------------*||
--10--10--10--10--10--10--10--10--|--10--10--10--10--10--10--10--10--*||
--10--10--10--10--10--10--10--10--|--10--10--10--10--10--10--10--10---||
--8---8---8---8---8---8---8---8---|--8---8---8---8---8---8---8---8----||


 "Pray for us all"
--------------------||
--------------------||
--------------------||
--10~---------------||
--10----------------||
--8-----------------||
Comments