Coheed And Cambria - The Crowing Chords & Tabs

 

The Crowing Chords & Tabs

Coheed And Cambria Chords & Tabs

Version: 3 Type: Tab 0 ratings
1 star 2 stars 3 stars 4 stars 5 stars
comments

The Crowing Tab

   
--------------------------------------------------------------------------
		       THE CROWING - Coheed and Cambria
--------------------------------------------------------------------------

Tabbed by: joecool71
Email: mattconnellan@yahoo.com

Tuning: Standard

Here is the fourth in my Coheed series... And the opus of the cd in question. With a full 8 PHASES!!!
This song is long, complicated, and incredibly badass. Have fun!!

Verse (Played only during 1st measure each time through verse)
e|---------------------------------------------------|
B|---------------------------------------------------|
G|---------------------------------------------------|
D|-55-55-55-55-44-44-44-44-44-44-44-44-22-22---------|
A|-77-77-77-77-55-55-55-55-22-22-22-22-33-33-0320----|
E|-----------------------------------------------303-|

Verse (Played all other times during verse)
e|---------------------------------------------------|
B|---------------------------------------------------|
G|---------------------------------------------------|
D|-55-55-55-55-77-77-77-77-44-44-44-44-55-55---------|
A|-77-77-77-77-55-55-55-55-55-55-55-55-33-33-0320----|
E|-----------------------------------------------303-|

Chorus
e|--------------------------------------------|
B|--------------------------------------------|
G|-------0--------0-------0-4br-0-----0-4br-0-|
D|-----4--------4---0---5-----------5---------|
A|---2--------2-------3-----------3-----------|
E|-0--------0---------------------------------|

Chorus lead (Comes in on 2nd part 1st time through each chorus)
e|---7--8--10--5--7-|--|--------8-7-------|--|
B|-/8-88-88--99-88--|--|---8-10-----8-----|--|
G|------------------|--|-9------------7/9-|--|
D|------------------|X2|------------------|X2|
A|------------------|--|------------------|--|
E|------------------|--|------------------|--|

Phase II
e|-------------------------|--|
B|-------------------------|--|
G|-5555-5555-55-7777-7777-4|--|
D|-5555-5555-55-7777-7777-4|X4|
A|-3333-3333-33-5555-5555-2|--|
E|-------------------------|--|

Phase II lead
e|-----------12-10----------------------------12-10------------->
B|-/12-13-12-------13-12-10-8-10-8--/12-13-12-------13-12h13p12->
G|-------------------------------------------------------------->
D|-------------------------------------------------------------->
A|-------------------------------------------------------------->
E|-------------------------------------------------------------->

e|------------------------------------------------------------------|
B|------------------------------------------------------------------|
G|------------------------------------------------------------------|
D|-10p9-10-9-10-12-10-9-----------------10p9-10-9-10-12-10-12-14-12-|
A|----------------------12-10-9-10-9--------------------------------|
E|-----------------------------------10-----------------------------|

Phase III
e|------------------|--|--------------------------------|
B|------------------|--|--------------------------------|
G|------------------|--|----------------------5-4-5-4---|
D|----9---10---12-9-|X2|----7---9---10-7------5-4-5-4-5-|
A|-7777-777--777--7-|--|-7777-777-777--7--555-3-2-3-2-5-|
E|-0000-000--000--0-|--|-5555-555-555--5--333---------3-|
   ...  ..   ..          ...  ..  ..      ...
Phase III lead
e|------10-8-8-7----7----------|--|-----------------------------------------------|
B|----8----------10---10-8-10\-|--|------10-8-8-7---7-8---/12-10------10----------|
G|-/9--------------------------|--|-/7-9----------9-----9--------12-9----9-11-7-9-|
D|-----------------------------|X2|-----------------------------------------------|
A|-----------------------------|--|-----------------------------------------------|
E|-----------------------------|--|-----------------------------------------------|
[ Tab from: http://www.guitartabs.cc/tabs/c/coheed_and_cambria/the_crowing_tab_ver_3.html ]
Phase IV
e|-------------------------------------------------------|
B|-----------------------------------------8-------1-3-0-|
G|------------------------------------0h5h7------0-------|
D|-222222222222222222222222------0h5h7---------2---------|
A|-222222222222222222222222-0h5h7------------3-----------|
E|-000000000000000000000000------------------------------|
    ....... ... ... .......
Phase V
e|------------------------------------------------------------------------------------|
B|------------------------------------------------------------------------------------|
G|-44-22-44-22-44-22-5p4p0-----5p4p0-----5--44-22-44-22-44-22-5p4p0-----5p4p0-----5/7-|
D|-44-22-44-22-44-22------5p4p0-----5p4p0---44-22-44-22-44-22------5p4p0-----5p4p0----|
A|-22-00-22-00-22-00------------------------22-00-22-00-22-00-------------------------|
E|------------------------------------------------------------------------------------|

Phase VI
e|----------------|--|---------|--|
B|----------------|--|---------|--|
G|----------------|--|---------|--|
D|-----9p0-----11-|X4|------12-|X2|
A|---7-------9----|--|---10----|--|
E|-5-------7------|--|-8-------|--|

Phase VII
e|-------------------------------------------------|
B|-------------------------------------------------|
G|-44----44----44----44----------------------------|
D|-44-22-44-22-44-22-44-22-55-22-55-22-55-22-55-22-|
A|-22-22-22-22-22-22-22-22-55-22-55-22-55-22-55-22-|
E|----00----00----00----00-33-00-33-00-33-00-33-00-|
   .. .. .. .. .. .. .. .. .. .. .. .. .. .. .. ..
Phase VII lead
e|-----------------------------------|
B|-10-12---10-12-14br--10------10-12-|
G|-------------------------11--------|
D|-----------------------------------|
A|-----------------------------------|
E|-----------------------------------|

Phase VIII 
e|-------------------------------------------------------------------|
B|-------------------------------------------------------------------|
G|-----------------7777777777777777----------------99999999----------|
D|-44444444444444447777777777777777777777777777777799999999-40--0-40-|
A|-44444444444444445555555555555555777777777777777777777777-20-40-20-|
E|-2222222222222222----------------5555555555555555------------2-----|

Phase VIII lead
e|----------------------------------------|
B|----------------------------------------|
G|----------------------------------------|
D|-7-6-7-6------7-6---6------7-6-7-9--7---|
A|---------9-7------9---9-7-------------9-|
E|----------------------------------------|

LYRICS AND RIFF PLACEMENT

[VERSE] X6
I fed the clues of a lost day killed in motion
But I thought of it so like there's no other way it could've been done
Will they size my fit for a puzzle I wish not to play part in it
A heart stained in hate a feeling I fear will play circles
[CHORUS W/ LEAD] X2
You were my favorite
[VERSE] X4
I severed my ties to shroud this body under the streets of this city
And wait for the day when I am summoned to walk across the face
Well slowly but clearer now in visions that play and plague memories
I love them with all (heart) as a son should to mother and father
[CHORUS W/ LEAD] X2
You were my favorite
[PHASE II W/ LEAD]
Would I walk through the door
Shedding the light of all life
With the rise and reform
Would I come as before
[PHASE III W/ LEAD] X2
Pray you're not the only one
[PHASE IV] X3
[PHASE V] X2
If given mistakes would I take them back
If erasing them could, if erasing them would
[PHASE VI]
What would they be the words that I would say
Your face and a door between
I've parted three ways for you the newo that I loved
[PHASE VII W/ LEAD] X6
Did you ever really know before my face shame to break
Did you ever really know before my mind scared to think
Did you ever really know before my name son to these
Did you come clean in the end from the start
[PHASE VIII W/ LEAD] X2
Dear Ambellina, the prise wishes you to watch over me
[PHASE VIII] X2
I've fought the decisions that call and lost my part as the relevant piece in this
I will come reformed
In short for the murders of those I court I bless the hour that holds your fall
(Sincerely) I will kill you all
[PHASE VIII W/ LEAD] UNTIL FADEOUT
I will call you out from shelter burn your wings you'll know no better
I will call you out from shelter burn your wings and learn their letters

| /  slide up
| \  slide down
| h  hammer-on
| p  pull-off
| ~  vibrato
| +  harmonic
| x  Mute note
===============================================================================
Comments