Coheed And Cambria - Ten Speed Of Gods Blood And Burial Chords & Tabs

 

Ten Speed Of Gods Blood And Burial Chords & Tabs

Coheed And Cambria Chords & Tabs

Version: 2 Type: Tab 0 ratings
1 star 2 stars 3 stars 4 stars 5 stars
comments

Ten Speed Of Gods Blood And Burial Tab

   
Title: Ten Speed (of God's Blood and Burial)
Artist: Coheed & Cambria
Album: Good Apollo I'm Burning Star IV, Volume 1: From Fear Through
 The Eyes of Madness

Copyright  Columbia Records 2005
Verion 1.0 - 09/02/2005 - Original Tab

Tabbed by: Chris Frazier (cdf0103@mail.ecu.edu)

This is one of my more favorite of the many upbeat tracks on Good Apollo.
It's a pretty straightforward song. I still feel like the first part of
Phase II is a little off as well as the beginning of the solo. The solo
is drenched with wah, so be sure to make your sweeps on wah as wide/long
as possible to more effectively emulate the song.

If anybody has any question, comments, or corrections PLEASE send them to
me at cdf0103@mail.ecu.edu and you'll be sure to get FULL CREDIT for
anything you submit to me.

This tab is reserved for the following sites, they will be the only
ones to recieve updated version(s) as they become available. If you
retrieved this tab from another website, please visit one of the
websites below to be sure you have the most accurate version:

http://www.angelfire.com/goth/btab/
http://www.mxtabs.net
http://www.cobaltandcalcium.com

.  - palm mute
/  - slide up and down to
b  - Bend
() - Natural harmonics
*  - Pinch harmonics
h  - Hammer
p  - Pull off
\"  - Tremolo Picking
x  - Mute
... - keep playing last chord at steady pace

Guitar I; Electric, Left Speaker (Eb Ab Db Gb Bb Eb)
Guitar II; Electric, Right Speaker (Eb Ab Db Gb Bb Eb)

Phase I (Guitar I)
E|----------------------------------||
B|------5-5-3-3-----1-1-----0-0-----||
G|----2---------2-2-----0-0-----0-2-||
D|----------------------------------||
A|----------------------------------||
E|----------------------------------||
      . . . . . . . . . . . . . . .

Phase I (Guitar II)
E|-----||-----5-------------------------||-----5----------------------15-17-||-----5-----------------||
B|-----||-5-6---6b--5---5b--6-5---------||-5-6---6b--5---5b--15-17-18-------||-5-6---6b--5---5b-6-5/-||
G|-----||-------------7---------7b------||-------------7--------------------||-------------7---------||
D|-----||---------------------------7-7-||----------------------------------||-----------------------||
A|-7---||-------------------------------||----------------------------------||-----------------------||
E|-5---||-------------------------------||----------------------------------||-----------------------||

Phase II (Guitar I)
E|------------------------------------------------------------------------------------------------------||
B|------------------------------------------------------------------------------------------------------||
G|------------------------------------------------------------------------------------------------------||
D|--------2------3-2----3-2--7--7--7-7--2-2--2-5----------2------3-2----3-2--7--7--7-7--2-2-2-2-5/----9-||
A|-3-3--3---3--3------3------5--5--5-5--0-0--0-3---3-3--3---3--3------3------5--5--5-5--0-0-0-0-3/----7-||
E|-1-1---------------------------------------------1-1----------------------------------------------0---||
                                .  . .  . .  . .                                .  . .    . . .     . .

Phase II (Guitar II)
E|---------------------------------15-------13--------------------||-----||
B|---------------------------------------------------16-------15/-||-17/-||
G|----------------------------------------------------------------||-----||
D|------------14-12--15-14------14-------14-------14-------14-----||-----||
A|-----14-13-----------------15-------15-------15-------15--------||-----||
E|----------------------------------------------------------------||-----||
[ Tab from: http://www.guitartabs.cc/tabs/c/coheed_and_cambria/ten_speed_of_gods_blood_and_burial_tab_ver_2.html ]
Phase III (Guitar I)
E|---------------------------------------------------------------------------------------9-9p7-------
B|------------------------------------------7-5/---12b--12b---8-12-7b---4-5-4---4b---7h9--------10h12
G|---------------------------4-4-7b-4-4-7b------------------------------------4----------------------
D|-------0-2-5-4b--2-4-0-2b--------------------------------------------------------------------------
A|-0-2-3---------------------------------------------------------------------------------------------
E|---------------------------------------------------------------------------------------------------

Phase III (Guitar I) Continued...
E|-10-12-9-10-7-9-------------------------------------------------9b-9b-9b-7--------7-------/14----/17b-p15-||
B|----------------10-12-8-10-7-9*--7-5-7*------------------------------------10--10----/15------------------||
G|----------------------------------------9-8-9*-7----7-----------------------------------------------------||
D|-------------------------------------------------10---10-9-9b*--------------------------------------------||
A|----------------------------------------------------------------------------------------------------------||
E|----------------------------------------------------------------------------------------------------------||

Phase III (Guitar II)
E|-----------------------------------------------------------------------------------------------------||
B|-----------------------------------------------------------------------------------------------------||
G|-----------------------------------------------------------------------------------------------------||
D|-------4------5-4----5-4--9--9--9-9--4-4--4-7---------4------5-4----5-4--9--9--9-9--4-4-4-4-7/----11-||
A|-5---5---5--5------5------7--7--7-7--2-2--2-5---5---5---5--5------5------7--7--7-7--2-2-2-2-5/----9--||
E|-3----------------------------------------------3-----------------------------------------------2----||

Phase IV (Guitar I)
E|---------------||
B|-----1p0-------||
G|-0h2-------0---||
D|-------------3-||
A|---------------||
E|---------------||

Phase IV (Guitar II)
E|-------||-------||
B|-------||-------||
G|-------||-------||
D|-----5-||-----4-||
A|-3h5---||-3h5---||
E|-------||-------||

Phase V (Guitar I)
E|-----------------------------------------------------------------------------------------------------------||
B|-----------------------------------------------------------------------------------------------------------||
G|-----------------------------------------------------------------------------------------------------------||
D|-----------------------------------------------------------------------------------------------------------||
A|-10-10-------7-8-7-10--8-7-8-7----7-7--7-8-7-5-7--7-5----------5-5----2------3------3-5-3-2----0-2-3-2-0---||
E|-8--8---8-10-------------------8--5-5-----------------8-7-5-3--3-3--3---3--3---3--3----------3-----------3-||

Phase V (Guitar II)
E|-------------------------13----12----------------||-12-10--------------------------||
B|-15-13-------15-13----------13----13-15-13-------||-------13-12-13-12--------------||
G|-------14-12-------14-12-------------------14-12-||-------------------12-------10/-||
D|-------------------------------------------------||--------------------------------||
A|-------------------------------------------------||--------------------------------||
E|-------------------------------------------------||--------------------------------||

Phase VI (Guitar I)
E|------------------------------------------------------------------------------------------------||-----||
B|------------------------------------------------------------------------------------------------||-----||
G|------------------------------------------------------------------------------------------------||-----||
D|--------2------3-2----3-2--7--7--7-7--2-2--2-5---------2------3-2----3-2--7--7--7-7--2-2-2-2-5/-||---9-||
A|-3-3--3---3--3------3------5--5--5-5--0-0--0-3---3---3---3--3------3------5--5--5-5--0-0-0-0-3/-||---7-||
E|-1-1---------------------------------------------1----------------------------------------------||-0---||
   . .  . . .  . . .  . . .
Comments