Coheed And Cambria - Ten Speed Of Gods Blood And Burial Chords & Tabs

 

Ten Speed Of Gods Blood And Burial Chords & Tabs

Coheed And Cambria Chords & Tabs

Version: 1 Type: Tab 0 ratings
1 star 2 stars 3 stars 4 stars 5 stars
comments

Ten Speed Of Gods Blood And Burial Tab

   
this is that anoying little intro thats nice and catchy.

tuning: EADGBE

---PART 1:--- (intro)

there are two guitars....starts with one doing this.

E:----------------------------------|
B:----------------------------------|
G:------8-8-6-6---------------------|
D:--6-6---------6-6-9-9-----8h9p8-6-|
A:--6-6-----------------9-9---------|
E:--4-4-----------------------------|


the second 6-6-4 is a quick upstroke.

the bit after 6-6-4 is then repeated over and over

After the top being played the 2nd guitar comes in with:

E:-------------------------------------------------11-12-14-16-|
B:-----9---------------------------9---------------------------|
G:-8-9---9v-8-6-8v-6---6v------8-9---9v-8-6-8v-6---------------|
D:-------------------9----9-6--------------------9-------------|
A:-------------------------------------------------------------|
E:-------------------------------------------------------------|

Repeat the above parts together 5 times then it goes:

---PART 2:---

Guitar 1:

E:----------------------------------------|
B:----------------------------------------|
G:--------------------------6-6-6---------|
D:-2-2---1-----2-1-----1----6-6-6-6-6-6/9-|
A:-2-2-2---2-2-----2-4---2--4-4-4-6-6-6/9-|
E:--------------------------------4-4-4/7-|

repeat above 4 times...somewhere in amongst it you here this:

Guitar 2:

E:-12-11----|
B:-------12-|
G:----------|
D:----------|
A:----------|
E:----------|

So after the above all being done it goes back to part 1 but this time you only play 1st
ONCE before second kicks in (NOTE: you only play the second bit of 2nd guitar first
part 1 together for another 5 times. Then go back to part 2...play this 4 times. then 
the wierd breakdown but. Which i shall do properly at another time...but this is a basic version:

---PART 3:--- (breakdown)

Guitar 1:

E:-----------------------------------------|
B:-----------------------------------------|
G:--------------------------8-8-8----------|
D:-4-4---3-----4-3-----3----8-8-8-8-8-8/11-|
A:-4-4-4---4-4-----4-6---4--6-6-6-8-8-8/11-|
E:-2-2----------------------------6-6-6/9--|

Repeat the above 4 times and on the last time add:
[ Tab from: http://www.guitartabs.cc/tabs/c/coheed_and_cambria/ten_speed_of_gods_blood_and_burial_tab.html ]
E:---
B:---
G:-9-
D:-9-
A:-7-
E:---

let it ring.

Guitar 2:

There is a bit just before this where it accends on a different octave with the first
but i'll do that later....it goes:

E:-------------------------------------------------------------------|
B:-------------------------------------------------------------------|
G:-----6v----6v-----15-13-15----13----13-----------------------------|
D:-8-8---8-8----8------------15----15----15-13-11-13-11-10-11-10\\\0-|
A:----------------6--------------------------------------------------|
E:-------------------------------------------------------------------|

I'll add the rest of that solo and harmonics when i can be bothered.
(/ when i work it out)

---Part 4:---

It starts with a nice little quiet bit thats prety easy to make up....its something like:

E:---------|
B:---------|
G:-----3h4-|
D:---2-----|
A:-4-------|
E:---------|

then the heavier bit under talking

Guitar 1:

E:---------------------------------------------------------------------|
B:---------------------------------------------------------------------|
G:-4-4-----------------------------------------------------------------|
D:-4-4---1-------1-2-4-2-1-6-6-1-2-1---1-1-------------4-4-------------|
A:-2-2-2---2-2-2-----------6-6-------4-----4-2-4-2-1-2-4-4---1-----2---|
E:-------------------------4-4-------------------------2-2-2---2-2---2-|

E:---------------------------|
B:---------------------------|
G:---------------------------|
D:---------------4---------4-|
A:---2-4-2-1---2-----4-2-1-4-|
E:-2---------0-----0-------2-|

please note those last 5-6 notes (except bar chord) are a bit wrong...so mess about with them.

Again sorry i'm not doing guitar part 2 for this...i'll do it at a later date.

---Part 5:---

Now comes the bit where he sings "believer, believer" etc....

this bit is just guitar 1 on Part 2 at the start and then the whole thing kicks off again.

OK WELL...that is the first tab i have seen for this song. now Its not perfect but i'm
on it. Its just a base for you guys to mess with.

so.....ENJOY.

comments to: gowdyjames@hotmail.com

P.S i'm working on "crossing the flame" so stay tuned for that.
Comments